  0
SECTION
  2
HEADER
  9
$ACADVER
  1
AC1015
  9
$ACADMAINTVER
 70
    20
  9
$DWGCODEPAGE
  3
ANSI_932
  9
$INSBASE
 10
0.0
 20
0.0
 30
0.0
  9
$EXTMIN
 10
137.2910827124661
 20
267.0129277024356
 30
0.0
  9
$EXTMAX
 10
3994.526982873864
 20
2757.655524388208
 30
0.0
  9
$LIMMIN
 10
0.0
 20
0.0
  9
$LIMMAX
 10
4205.0
 20
2970.0
  9
$ORTHOMODE
 70
     0
  9
$REGENMODE
 70
     1
  9
$FILLMODE
 70
     1
  9
$QTEXTMODE
 70
     0
  9
$MIRRTEXT
 70
     1
  9
$LTSCALE
 40
5.0
  9
$ATTMODE
 70
     1
  9
$TEXTSIZE
 40
0.2
  9
$TRACEWID
 40
0.05
  9
$TEXTSTYLE
  7
STANDARD
  9
$CLAYER
  8
0
  9
$CELTYPE
  6
CONTINUOUS
  9
$CECOLOR
 62
   256
  9
$CELTSCALE
 40
1.0
  9
$DISPSILH
 70
     0
  9
$DIMSCALE
 40
1.0
  9
$DIMASZ
 40
0.18
  9
$DIMEXO
 40
0.0625
  9
$DIMDLI
 40
0.38
  9
$DIMRND
 40
0.0
  9
$DIMDLE
 40
0.0
  9
$DIMEXE
 40
0.18
  9
$DIMTP
 40
0.0
  9
$DIMTM
 40
0.0
  9
$DIMTXT
 40
0.18
  9
$DIMCEN
 40
0.09
  9
$DIMTSZ
 40
0.0
  9
$DIMTOL
 70
     0
  9
$DIMLIM
 70
     0
  9
$DIMTIH
 70
     1
  9
$DIMTOH
 70
     1
  9
$DIMSE1
 70
     0
  9
$DIMSE2
 70
     0
  9
$DIMTAD
 70
     0
  9
$DIMZIN
 70
     0
  9
$DIMBLK
  1

  9
$DIMASO
 70
     1
  9
$DIMSHO
 70
     1
  9
$DIMPOST
  1

  9
$DIMAPOST
  1

  9
$DIMALT
 70
     0
  9
$DIMALTD
 70
     2
  9
$DIMALTF
 40
25.4
  9
$DIMLFAC
 40
1.0
  9
$DIMTOFL
 70
     0
  9
$DIMTVP
 40
0.0
  9
$DIMTIX
 70
     0
  9
$DIMSOXD
 70
     0
  9
$DIMSAH
 70
     0
  9
$DIMBLK1
  1

  9
$DIMBLK2
  1

  9
$DIMSTYLE
  2
Standard
  9
$DIMCLRD
 70
     0
  9
$DIMCLRE
 70
     0
  9
$DIMCLRT
 70
     0
  9
$DIMTFAC
 40
1.0
  9
$DIMGAP
 40
0.09
  9
$DIMJUST
 70
     0
  9
$DIMSD1
 70
     0
  9
$DIMSD2
 70
     0
  9
$DIMTOLJ
 70
     1
  9
$DIMTZIN
 70
     0
  9
$DIMALTZ
 70
     0
  9
$DIMALTTZ
 70
     0
  9
$DIMUPT
 70
     0
  9
$DIMDEC
 70
     4
  9
$DIMTDEC
 70
     4
  9
$DIMALTU
 70
     2
  9
$DIMALTTD
 70
     2
  9
$DIMTXSTY
  7
STANDARD
  9
$DIMAUNIT
 70
     0
  9
$DIMADEC
 70
     0
  9
$DIMALTRND
 40
0.0
  9
$DIMAZIN
 70
     0
  9
$DIMDSEP
 70
    46
  9
$DIMATFIT
 70
     3
  9
$DIMFRAC
 70
     0
  9
$DIMLDRBLK
  1

  9
$DIMLUNIT
 70
     2
  9
$DIMLWD
 70
    -2
  9
$DIMLWE
 70
    -2
  9
$DIMTMOVE
 70
     2
  9
$LUNITS
 70
     2
  9
$LUPREC
 70
     8
  9
$SKETCHINC
 40
0.1
  9
$FILLETRAD
 40
0.5
  9
$AUNITS
 70
     0
  9
$AUPREC
 70
     0
  9
$MENU
  1
.
  9
$ELEVATION
 40
0.0
  9
$PELEVATION
 40
0.0
  9
$THICKNESS
 40
0.0
  9
$LIMCHECK
 70
     0
  9
$CHAMFERA
 40
0.0
  9
$CHAMFERB
 40
0.0
  9
$CHAMFERC
 40
0.0
  9
$CHAMFERD
 40
0.0
  9
$SKPOLY
 70
     0
  9
$TDCREATE
 40
2459888.847164352
  9
$TDUCREATE
 40
2459888.472166215
  9
$TDUPDATE
 40
2460176.462800926
  9
$TDUUPDATE
 40
2460176.087800926
  9
$TDINDWG
 40
0.0010371991
  9
$TDUSRTIMER
 40
0.0010370718
  9
$USRTIMER
 70
     1
  9
$ANGBASE
 50
0.0
  9
$ANGDIR
 70
     0
  9
$PDMODE
 70
     0
  9
$PDSIZE
 40
0.0
  9
$PLINEWID
 40
0.0
  9
$SPLFRAME
 70
     0
  9
$SPLINETYPE
 70
     6
  9
$SPLINESEGS
 70
     8
  9
$HANDSEED
  5
538
  9
$SURFTAB1
 70
     6
  9
$SURFTAB2
 70
     6
  9
$SURFTYPE
 70
     6
  9
$SURFU
 70
     6
  9
$SURFV
 70
     6
  9
$UCSBASE
  2

  9
$UCSNAME
  2

  9
$UCSORG
 10
0.0
 20
0.0
 30
0.0
  9
$UCSXDIR
 10
1.0
 20
0.0
 30
0.0
  9
$UCSYDIR
 10
0.0
 20
1.0
 30
0.0
  9
$UCSORTHOREF
  2

  9
$UCSORTHOVIEW
 70
     0
  9
$UCSORGTOP
 10
0.0
 20
0.0
 30
0.0
  9
$UCSORGBOTTOM
 10
0.0
 20
0.0
 30
0.0
  9
$UCSORGLEFT
 10
0.0
 20
0.0
 30
0.0
  9
$UCSORGRIGHT
 10
0.0
 20
0.0
 30
0.0
  9
$UCSORGFRONT
 10
0.0
 20
0.0
 30
0.0
  9
$UCSORGBACK
 10
0.0
 20
0.0
 30
0.0
  9
$PUCSBASE
  2

  9
$PUCSNAME
  2

  9
$PUCSORG
 10
0.0
 20
0.0
 30
0.0
  9
$PUCSXDIR
 10
1.0
 20
0.0
 30
0.0
  9
$PUCSYDIR
 10
0.0
 20
1.0
 30
0.0
  9
$PUCSORTHOREF
  2

  9
$PUCSORTHOVIEW
 70
     0
  9
$PUCSORGTOP
 10
0.0
 20
0.0
 30
0.0
  9
$PUCSORGBOTTOM
 10
0.0
 20
0.0
 30
0.0
  9
$PUCSORGLEFT
 10
0.0
 20
0.0
 30
0.0
  9
$PUCSORGRIGHT
 10
0.0
 20
0.0
 30
0.0
  9
$PUCSORGFRONT
 10
0.0
 20
0.0
 30
0.0
  9
$PUCSORGBACK
 10
0.0
 20
0.0
 30
0.0
  9
$USERI1
 70
     0
  9
$USERI2
 70
     0
  9
$USERI3
 70
     0
  9
$USERI4
 70
     0
  9
$USERI5
 70
     0
  9
$USERR1
 40
0.0
  9
$USERR2
 40
0.0
  9
$USERR3
 40
0.0
  9
$USERR4
 40
0.0
  9
$USERR5
 40
0.0
  9
$WORLDVIEW
 70
     1
  9
$SHADEDGE
 70
     3
  9
$SHADEDIF
 70
    70
  9
$TILEMODE
 70
     1
  9
$MAXACTVP
 70
    64
  9
$PINSBASE
 10
0.0
 20
0.0
 30
0.0
  9
$PLIMCHECK
 70
     0
  9
$PEXTMIN
 10
1.000000000000000E+20
 20
1.000000000000000E+20
 30
1.000000000000000E+20
  9
$PEXTMAX
 10
-1.000000000000000E+20
 20
-1.000000000000000E+20
 30
-1.000000000000000E+20
  9
$PLIMMIN
 10
0.0
 20
0.0
  9
$PLIMMAX
 10
12.0
 20
9.0
  9
$UNITMODE
 70
     0
  9
$VISRETAIN
 70
     1
  9
$PLINEGEN
 70
     0
  9
$PSLTSCALE
 70
     1
  9
$TREEDEPTH
 70
  3020
  9
$CMLSTYLE
  2
Standard
  9
$CMLJUST
 70
     0
  9
$CMLSCALE
 40
1.0
  9
$PROXYGRAPHICS
 70
     1
  9
$MEASUREMENT
 70
     0
  9
$CELWEIGHT
370
    -1
  9
$ENDCAPS
280
     0
  9
$JOINSTYLE
280
     0
  9
$LWDISPLAY
290
     0
  9
$INSUNITS
 70
     0
  9
$HYPERLINKBASE
  1

  9
$STYLESHEET
  1

  9
$XEDIT
290
     1
  9
$CEPSNTYPE
380
     3
  9
$CEPSNID
390
11
  9
$PSTYLEMODE
290
     1
  9
$FINGERPRINTGUID
  2
{0084AF9B-3585-4F58-AAAA-D67223D12C8C}
  9
$VERSIONGUID
  2
{FAEB1C32-E019-11D5-929B-00C0DF256EC4}
  9
$EXTNAMES
290
     1
  9
$PSVPSCALE
 40
0.0
  9
$OLESTARTUP
290
     0
  0
ENDSEC
  0
SECTION
  2
CLASSES
  0
CLASS
  1
ACDBDICTIONARYWDFLT
  2
AcDbDictionaryWithDefault
  3
ObjectDBX Classes
 90
        0
280
     0
281
     0
  0
CLASS
  1
SCALE
  2
AcDbScale
  3
ObjectDBX Classes
 90
     1153
280
     0
281
     0
  0
CLASS
  1
VISUALSTYLE
  2
AcDbVisualStyle
  3
ObjectDBX Classes
 90
     4095
280
     0
281
     0
  0
CLASS
  1
MATERIAL
  2
AcDbMaterial
  3
ObjectDBX Classes
 90
     1153
280
     0
281
     0
  0
CLASS
  1
TABLESTYLE
  2
AcDbTableStyle
  3
ObjectDBX Classes
 90
     4095
280
     0
281
     0
  0
CLASS
  1
MLEADERSTYLE
  2
AcDbMLeaderStyle
  3
ACDB_MLEADERSTYLE_CLASS
 90
     4095
280
     0
281
     0
  0
CLASS
  1
DICTIONARYVAR
  2
AcDbDictionaryVar
  3
ObjectDBX Classes
 90
        0
280
     0
281
     0
  0
CLASS
  1
CELLSTYLEMAP
  2
AcDbCellStyleMap
  3
ObjectDBX Classes
 90
     1152
280
     0
281
     0
  0
CLASS
  1
ACDBSECTIONVIEWSTYLE
  2
AcDbSectionViewStyle
  3
ObjectDBX Classes
 90
     1025
280
     0
281
     0
  0
CLASS
  1
ACDBDETAILVIEWSTYLE
  2
AcDbDetailViewStyle
  3
ObjectDBX Classes
 90
     1025
280
     0
281
     0
  0
CLASS
  1
ACDBPLACEHOLDER
  2
AcDbPlaceHolder
  3
ObjectDBX Classes
 90
        0
280
     0
281
     0
  0
CLASS
  1
LAYOUT
  2
AcDbLayout
  3
ObjectDBX Classes
 90
        0
280
     0
281
     0
  0
ENDSEC
  0
SECTION
  2
TABLES
  0
TABLE
  2
VPORT
  5
8
330
0
100
AcDbSymbolTable
 70
     1
  0
VPORT
  5
416
330
8
100
AcDbSymbolTableRecord
100
AcDbViewportTableRecord
  2
*Active
 70
     0
 10
0.0
 20
0.0
 11
1.0
 21
1.0
 12
2065.909032793165
 22
2247.293224264836
 13
0.0
 23
0.0
 14
0.5
 24
0.5
 15
0.5
 25
0.5
 16
0.0
 26
0.0
 36
1.0
 17
0.0
 27
0.0
 37
0.0
 40
3831.672358502559
 41
1.351851851851851
 42
50.0
 43
0.0
 44
0.0
 50
0.0
 51
0.0
 71
     0
 72
   100
 73
     1
 74
     3
 75
     0
 76
     0
 77
     0
 78
     0
281
     0
 65
     1
110
0.0
120
0.0
130
0.0
111
1.0
121
0.0
131
0.0
112
0.0
122
1.0
132
0.0
 79
     0
146
0.0
1001
ACAD_NAV_VCDISPLAY
1070
     3
  0
ENDTAB
  0
TABLE
  2
LTYPE
  5
5
330
0
100
AcDbSymbolTable
 70
    51
  0
LTYPE
  5
14
330
5
100
AcDbSymbolTableRecord
100
AcDbLinetypeTableRecord
  2
ByBlock
 70
     0
  3

 72
    65
 73
     0
 40
0.0
  0
LTYPE
  5
15
330
5
100
AcDbSymbolTableRecord
100
AcDbLinetypeTableRecord
  2
ByLayer
 70
     0
  3

 72
    65
 73
     0
 40
0.0
  0
LTYPE
  5
16
330
5
100
AcDbSymbolTableRecord
100
AcDbLinetypeTableRecord
  2
CONTINUOUS
 70
     0
  3
実線
 72
    65
 73
     0
 40
0.0
  0
LTYPE
  5
21
330
5
100
AcDbSymbolTableRecord
100
AcDbLinetypeTableRecord
  2
DASHED1
 70
     0
  3
--  --  --  --  --  --  --  --  
 72
    65
 73
     2
 40
2.5
 49
1.25
 74
     0
 49
-1.25
 74
     0
  0
LTYPE
  5
22
330
5
100
AcDbSymbolTableRecord
100
AcDbLinetypeTableRecord
  2
DASHED2
 70
     0
  3
----    ----    ----    ----    
 72
    65
 73
     2
 40
5.0
 49
2.5
 74
     0
 49
-2.5
 74
     0
  0
LTYPE
  5
23
330
5
100
AcDbSymbolTableRecord
100
AcDbLinetypeTableRecord
  2
DASHED3
 70
     0
  3
------  ------  ------  ------  
 72
    65
 73
     2
 40
5.0
 49
3.75
 74
     0
 49
-1.25
 74
     0
  0
LTYPE
  5
24
330
5
100
AcDbSymbolTableRecord
100
AcDbLinetypeTableRecord
  2
CENTER1
 70
     0
  3
----- - ----- - ----- - ----- - 
 72
    65
 73
     4
 40
10.0
 49
6.25
 74
     0
 49
-1.25
 74
     0
 49
1.25
 74
     0
 49
-1.25
 74
     0
  0
LTYPE
  5
25
330
5
100
AcDbSymbolTableRecord
100
AcDbLinetypeTableRecord
  2
CENTER2
 70
     0
  3
----------  --  ----------  --  
 72
    65
 73
     4
 40
20.0
 49
12.5
 74
     0
 49
-2.5
 74
     0
 49
2.5
 74
     0
 49
-2.5
 74
     0
  0
LTYPE
  5
26
330
5
100
AcDbSymbolTableRecord
100
AcDbLinetypeTableRecord
  2
PHANTOM1
 70
     0
  3
--- - - --- - - --- - - --- - - 
 72
    65
 73
     6
 40
9.5
 49
3.25
 74
     0
 49
-1.25
 74
     0
 49
1.25
 74
     0
 49
-1.25
 74
     0
 49
1.25
 74
     0
 49
-1.25
 74
     0
  0
LTYPE
  5
27
330
5
100
AcDbSymbolTableRecord
100
AcDbLinetypeTableRecord
  2
PHANTOM2
 70
     0
  3
--------  -  -  --------  -  -  
 72
    65
 73
     6
 40
20.0
 49
10.0
 74
     0
 49
-2.5
 74
     0
 49
1.25
 74
     0
 49
-2.5
 74
     0
 49
1.25
 74
     0
 49
-2.5
 74
     0
  0
LTYPE
  5
28
330
5
100
AcDbSymbolTableRecord
100
AcDbLinetypeTableRecord
  2
DOT
 70
     0
  3
-   -   -   -   -   -   -   -   
 72
    65
 73
     2
 40
2.5
 49
0.625
 74
     0
 49
-1.875
 74
     0
  0
LTYPE
  5
29
330
5
100
AcDbSymbolTableRecord
100
AcDbLinetypeTableRecord
  2
DUMMY
 70
     0
  3
ダミー
 72
    65
 73
     0
 40
0.0
  0
LTYPE
  5
2A
330
5
100
AcDbSymbolTableRecord
100
AcDbLinetypeTableRecord
  2
RAND1
 70
     0
  3
ランダム線1
 72
    65
 73
     4
 40
10.0
 49
1.0
 74
     0
 49
-2.0
 74
     0
 49
3.0
 74
     0
 49
-4.0
 74
     0
  0
LTYPE
  5
2B
330
5
100
AcDbSymbolTableRecord
100
AcDbLinetypeTableRecord
  2
RAND2
 70
     0
  3
ランダム線2
 72
    65
 73
     4
 40
14.0
 49
2.0
 74
     0
 49
-3.0
 74
     0
 49
4.0
 74
     0
 49
-5.0
 74
     0
  0
LTYPE
  5
2C
330
5
100
AcDbSymbolTableRecord
100
AcDbLinetypeTableRecord
  2
RAND3
 70
     0
  3
ランダム線3
 72
    65
 73
     4
 40
18.0
 49
3.0
 74
     0
 49
-4.0
 74
     0
 49
5.0
 74
     0
 49
-6.0
 74
     0
  0
LTYPE
  5
2D
330
5
100
AcDbSymbolTableRecord
100
AcDbLinetypeTableRecord
  2
RAND4
 70
     0
  3
ランダム線4
 72
    65
 73
     4
 40
22.0
 49
4.0
 74
     0
 49
-5.0
 74
     0
 49
6.0
 74
     0
 49
-7.0
 74
     0
  0
LTYPE
  5
2E
330
5
100
AcDbSymbolTableRecord
100
AcDbLinetypeTableRecord
  2
RAND5
 70
     0
  3
ランダム線5
 72
    65
 73
     4
 40
26.0
 49
5.0
 74
     0
 49
-6.0
 74
     0
 49
7.0
 74
     0
 49
-8.0
 74
     0
  0
LTYPE
  5
2F
330
5
100
AcDbSymbolTableRecord
100
AcDbLinetypeTableRecord
  2
LONG1
 70
     0
  3
----------  --  ----------  --  
 72
    65
 73
     4
 40
40.0
 49
32.5
 74
     0
 49
-2.5
 74
     0
 49
2.5
 74
     0
 49
-2.5
 74
     0
  0
LTYPE
  5
30
330
5
100
AcDbSymbolTableRecord
100
AcDbLinetypeTableRecord
  2
LONG2
 70
     0
  3
--------  -  -  --------  -  -  
 72
    65
 73
     6
 40
40.0
 49
30.0
 74
     0
 49
-2.5
 74
     0
 49
1.25
 74
     0
 49
-2.5
 74
     0
 49
1.25
 74
     0
 49
-2.5
 74
     0
  0
LTYPE
  5
31
330
5
100
AcDbSymbolTableRecord
100
AcDbLinetypeTableRecord
  2
LONG3
 70
     0
  3
+++++++++++++++..+++++++++++++++
 72
    65
 73
     2
 40
40.0
 49
37.5
 74
     0
 49
-2.5
 74
     0
  0
LTYPE
  5
32
330
5
100
AcDbSymbolTableRecord
100
AcDbLinetypeTableRecord
  2
LONG4
 70
     0
  3
+++++++++++++++..+++++++++++++++
 72
    65
 73
     2
 40
80.0
 49
75.0
 74
     0
 49
-5.0
 74
     0
  0
LTYPE
  5
33
330
5
100
AcDbSymbolTableRecord
100
AcDbLinetypeTableRecord
  2
LONG5
 70
     0
  3
----------  --  ----------  --  
 72
    65
 73
     4
 40
60.0
 49
37.5
 74
     0
 49
-7.5
 74
     0
 49
7.5
 74
     0
 49
-7.5
 74
     0
  0
LTYPE
  5
34
330
5
100
AcDbSymbolTableRecord
100
AcDbLinetypeTableRecord
  2
dashed
 70
     0
  3
-------   -------------   ------
 72
    65
 73
     2
 40
7.5
 49
6.0
 74
     0
 49
-1.5
 74
     0
  0
LTYPE
  5
35
330
5
100
AcDbSymbolTableRecord
100
AcDbLinetypeTableRecord
  2
dashed_spaced
 70
     0
  3
----        --------        ----
 72
    65
 73
     2
 40
12.0
 49
6.0
 74
     0
 49
-6.0
 74
     0
  0
LTYPE
  5
36
330
5
100
AcDbSymbolTableRecord
100
AcDbLinetypeTableRecord
  2
long_dashed_dotted
 70
     0
  3
------------- --- --------------
 72
    65
 73
     4
 40
15.25
 49
12.0
 74
     0
 49
-1.5
 74
     0
 49
0.25
 74
     0
 49
-1.5
 74
     0
  0
LTYPE
  5
37
330
5
100
AcDbSymbolTableRecord
100
AcDbLinetypeTableRecord
  2
long_dashed_double-dotted
 70
     0
  3
----------- --- --- ------------
 72
    65
 73
     6
 40
17.0
 49
12.0
 74
     0
 49
-1.5
 74
     0
 49
0.25
 74
     0
 49
-1.5
 74
     0
 49
0.25
 74
     0
 49
-1.5
 74
     0
  0
LTYPE
  5
38
330
5
100
AcDbSymbolTableRecord
100
AcDbLinetypeTableRecord
  2
long_dashed_triplicate-dotted
 70
     0
  3
--------- --- --- --- ----------
 72
    65
 73
     8
 40
18.75
 49
12.0
 74
     0
 49
-1.5
 74
     0
 49
0.25
 74
     0
 49
-1.5
 74
     0
 49
0.25
 74
     0
 49
-1.5
 74
     0
 49
0.25
 74
     0
 49
-1.5
 74
     0
  0
LTYPE
  5
39
330
5
100
AcDbSymbolTableRecord
100
AcDbLinetypeTableRecord
  2
dotted
 70
     0
  3
   -       -       -       -    
 72
    65
 73
     2
 40
1.75
 49
0.25
 74
     0
 49
-1.5
 74
     0
  0
LTYPE
  5
3A
330
5
100
AcDbSymbolTableRecord
100
AcDbLinetypeTableRecord
  2
chain
 70
     0
  3
-------------- -- --------------
 72
    65
 73
     4
 40
18.5
 49
12.0
 74
     0
 49
-1.5
 74
     0
 49
3.5
 74
     0
 49
-1.5
 74
     0
  0
LTYPE
  5
3B
330
5
100
AcDbSymbolTableRecord
100
AcDbLinetypeTableRecord
  2
chain_double_dash
 70
     0
  3
------------ -- -- -------------
 72
    65
 73
     6
 40
23.5
 49
12.0
 74
     0
 49
-1.5
 74
     0
 49
3.5
 74
     0
 49
-1.5
 74
     0
 49
3.5
 74
     0
 49
-1.5
 74
     0
  0
LTYPE
  5
3C
330
5
100
AcDbSymbolTableRecord
100
AcDbLinetypeTableRecord
  2
dashed_dotted
 70
     0
  3
-----------     -     ----------
 72
    65
 73
     4
 40
9.25
 49
6.0
 74
     0
 49
-1.5
 74
     0
 49
0.25
 74
     0
 49
-1.5
 74
     0
  0
LTYPE
  5
3D
330
5
100
AcDbSymbolTableRecord
100
AcDbLinetypeTableRecord
  2
double-dashed_dotted
 70
     0
  3
------   -----------   -   -----
 72
    65
 73
     6
 40
16.75
 49
6.0
 74
     0
 49
-1.5
 74
     0
 49
6.0
 74
     0
 49
-1.5
 74
     0
 49
0.25
 74
     0
 49
-1.5
 74
     0
  0
LTYPE
  5
3E
330
5
100
AcDbSymbolTableRecord
100
AcDbLinetypeTableRecord
  2
dashed_double-dotted
 70
     0
  3
---------    -    -    ---------
 72
    65
 73
     6
 40
11.0
 49
6.0
 74
     0
 49
-1.5
 74
     0
 49
0.25
 74
     0
 49
-1.5
 74
     0
 49
0.25
 74
     0
 49
-1.5
 74
     0
  0
LTYPE
  5
3F
330
5
100
AcDbSymbolTableRecord
100
AcDbLinetypeTableRecord
  2
double-dashed_double-dotted
 70
     0
  3
-----   ---------   -   -   ----
 72
    65
 73
     8
 40
18.5
 49
6.0
 74
     0
 49
-1.5
 74
     0
 49
6.0
 74
     0
 49
-1.5
 74
     0
 49
0.25
 74
     0
 49
-1.5
 74
     0
 49
0.25
 74
     0
 49
-1.5
 74
     0
  0
LTYPE
  5
40
330
5
100
AcDbSymbolTableRecord
100
AcDbLinetypeTableRecord
  2
dashed_triplicate-dotted
 70
     0
  3
-------    -    -    -    ------
 72
    65
 73
     8
 40
12.75
 49
6.0
 74
     0
 49
-1.5
 74
     0
 49
0.25
 74
     0
 49
-1.5
 74
     0
 49
0.25
 74
     0
 49
-1.5
 74
     0
 49
0.25
 74
     0
 49
-1.5
 74
     0
  0
LTYPE
  5
41
330
5
100
AcDbSymbolTableRecord
100
AcDbLinetypeTableRecord
  2
double-dashed_triplicate-dotted
 70
     0
  3
-----  ---------  -  -  -  -----
 72
    65
 73
    10
 40
20.25
 49
6.0
 74
     0
 49
-1.5
 74
     0
 49
6.0
 74
     0
 49
-1.5
 74
     0
 49
0.25
 74
     0
 49
-1.5
 74
     0
 49
0.25
 74
     0
 49
-1.5
 74
     0
 49
0.25
 74
     0
 49
-1.5
 74
     0
  0
LTYPE
  5
42
330
5
100
AcDbSymbolTableRecord
100
AcDbLinetypeTableRecord
  2
undefined
 70
     0
  3
--------------------------------
 72
    65
 73
     0
 40
0.0
  0
LTYPE
  5
43
330
5
100
AcDbSymbolTableRecord
100
AcDbLinetypeTableRecord
  2
4
 70
     0
  3
-------- --------------- -------
 72
    65
 73
     2
 40
40.01
 49
40.0
 74
     0
 49
-0.01
 74
     0
  0
LTYPE
  5
44
330
5
100
AcDbSymbolTableRecord
100
AcDbLinetypeTableRecord
  2
3
 70
     0
  3
----------    ----    ----------
 72
    65
 73
     4
 40
0.4444445669291336
 49
0.2777777952755903
 74
     0
 49
-0.0555555905511811
 74
     0
 49
0.0555555905511811
 74
     0
 49
-0.0555555905511811
 74
     0
  0
LTYPE
  5
45
330
5
100
AcDbSymbolTableRecord
100
AcDbLinetypeTableRecord
  2
2
 70
     0
  3
----        --------        ----
 72
    65
 73
     2
 40
0.833282470703125
 49
0.41656494140625
 74
     0
 49
-0.416717529296875
 74
     0
  0
LTYPE
  5
46
330
5
100
AcDbSymbolTableRecord
100
AcDbLinetypeTableRecord
  2
1
 70
     0
  3
-----    -----------    -  -----
 72
    65
 73
     6
 40
3.75
 49
1.25
 74
     0
 49
-0.41656494140625
 74
     0
 49
1.25
 74
     0
 49
-0.416717529296875
 74
     0
 49
0.13885498046875
 74
     0
 49
-0.277862548828125
 74
     0
  0
LTYPE
  5
47
330
5
100
AcDbSymbolTableRecord
100
AcDbLinetypeTableRecord
  2
AI-Linetype-4
 70
     0
  3
----        --------        ----
 72
    65
 73
     2
 40
1.000002201219374
 49
0.5000011006096871
 74
     0
 49
-0.5000011006096871
 74
     0
  0
LTYPE
  5
48
330
5
100
AcDbSymbolTableRecord
100
AcDbLinetypeTableRecord
  2
繝_繧_繝_繧_繧_繝__24
 70
     0
  3
------     -----------     -----
 72
    65
 73
     2
 40
0.5905511811023623
 49
0.3937007874015748
 74
     0
 49
-0.1968503937007874
 74
     0
  0
LTYPE
  5
49
330
5
100
AcDbSymbolTableRecord
100
AcDbLinetypeTableRecord
  2
繝_繧_繝_繧_繧_繝__22
 70
     0
  3
----     -----     -----     ---
 72
    65
 73
     6
 40
1.450582677165354
 49
0.241763779527559
 74
     0
 49
-0.241763779527559
 74
     0
 49
0.241763779527559
 74
     0
 49
-0.241763779527559
 74
     0
 49
0.241763779527559
 74
     0
 49
-0.241763779527559
 74
     0
  0
LTYPE
  5
4A
330
5
100
AcDbSymbolTableRecord
100
AcDbLinetypeTableRecord
  2
繝_繧_繝_繧_繧_繝__21
 70
     0
  3
----     -----     -----     ---
 72
    65
 73
     6
 40
1.308833858267716
 49
0.2181389763779527
 74
     0
 49
-0.2181389763779527
 74
     0
 49
0.2181389763779527
 74
     0
 49
-0.2181389763779527
 74
     0
 49
0.2181389763779527
 74
     0
 49
-0.2181389763779529
 74
     0
  0
LTYPE
  5
4B
330
5
100
AcDbSymbolTableRecord
100
AcDbLinetypeTableRecord
  2
繝_繧_繝_繧_繧_繝__19
 70
     0
  3
-----------  --  --  -----------
 72
    65
 73
     6
 40
4.166667716535432
 49
2.777777952755906
 74
     0
 49
-0.2777779527559052
 74
     0
 49
0.2777779527559052
 74
     0
 49
-0.2777779527559052
 74
     0
 49
0.2777779527559052
 74
     0
 49
-0.2777779527559052
 74
     0
  0
LTYPE
  5
4C
330
5
100
AcDbSymbolTableRecord
100
AcDbLinetypeTableRecord
  2
繝_繧_繝_繧_繧_繝__18
 70
     0
  3
-----      ----------      -----
 72
    65
 73
     2
 40
1.527777777777777
 49
0.9722222222222221
 74
     0
 49
-0.5555555555555555
 74
     0
  0
LTYPE
  5
4D
330
5
100
AcDbSymbolTableRecord
100
AcDbLinetypeTableRecord
  2
繝_繧_繝_繧_繧_繝__15
 70
     0
  3
--------    --    --    --------
 72
    65
 73
     6
 40
0.0644061102362205
 49
0.0322030551181102
 74
     0
 49
-0.0080508346456693
 74
     0
 49
0.0040252755905512
 74
     0
 49
-0.0080508346456693
 74
     0
 49
0.0040252755905512
 74
     0
 49
-0.0080508346456693
 74
     0
  0
LTYPE
  5
4E
330
5
100
AcDbSymbolTableRecord
100
AcDbLinetypeTableRecord
  2
繝_繧_繝_繧_繧_繝__13
 70
     0
  3
-----------   -   -   ----------
 72
    65
 73
     6
 40
0.0638889055118109
 49
0.0416666692913386
 74
     0
 49
-0.0055555590551181
 74
     0
 49
0.002777779527559
 74
     0
 49
-0.0055555590551181
 74
     0
 49
0.002777779527559
 74
     0
 49
-0.0055555590551181
 74
     0
  0
LTYPE
  5
4F
330
5
100
AcDbSymbolTableRecord
100
AcDbLinetypeTableRecord
  2
繝_繧_繝_繧_繧_繝__12
 70
     0
  3
-----------  --  --  -----------
 72
    65
 73
     6
 40
0.0416666771653541
 49
0.0277777795275591
 74
     0
 49
-0.002777779527559
 74
     0
 49
0.002777779527559
 74
     0
 49
-0.002777779527559
 74
     0
 49
0.002777779527559
 74
     0
 49
-0.002777779527559
 74
     0
  0
LTYPE
  5
50
330
5
100
AcDbSymbolTableRecord
100
AcDbLinetypeTableRecord
  2
繝_繧_繝_繧_繧_繝__11
 70
     0
  3
--            ----            --
 72
    65
 73
     2
 40
0.137795275590551
 49
0.0344488188976376
 74
     0
 49
-0.1033464566929134
 74
     0
  0
LTYPE
  5
51
330
5
100
AcDbSymbolTableRecord
100
AcDbLinetypeTableRecord
  2
繝_繧_繝_繧_繧_繝__10
 70
     0
  3
----------- ---- ---  ----------
 72
    65
 73
     6
 40
11.875
 49
7.5
 74
     0
 49
-0.5555699999999995
 74
     0
 49
1.388860000000001
 74
     0
 49
-0.5555699999999995
 74
     0
 49
1.25
 74
     0
 49
-0.625
 74
     0
  0
LTYPE
  5
52
330
5
100
AcDbSymbolTableRecord
100
AcDbLinetypeTableRecord
  2
繝_繧_繝_繧_繧_繝__9
 70
     0
  3
-----------   -----   ----------
 72
    65
 73
     4
 40
5.138888888888888
 49
3.333333333333333
 74
     0
 49
-0.5555555555555558
 74
     0
 49
0.8333333333333332
 74
     0
 49
-0.4166666666666663
 74
     0
  0
ENDTAB
  0
TABLE
  2
LAYER
  5
2
330
0
100
AcDbSymbolTable
 70
    32
  0
LAYER
  5
10
330
2
100
AcDbSymbolTableRecord
100
AcDbLayerTableRecord
  2
0
 70
     0
 62
     7
  6
CONTINUOUS
370
    -3
390
11
  0
LAYER
  5
55
330
2
100
AcDbSymbolTableRecord
100
AcDbLayerTableRecord
  2
_0-1_荳_闊_
 70
     0
 62
     7
  6
CONTINUOUS
370
    -3
390
F
  0
LAYER
  5
56
330
2
100
AcDbSymbolTableRecord
100
AcDbLayerTableRecord
  2
_0-2_蟇_豕__
 70
     0
 62
     7
  6
CONTINUOUS
370
    -3
390
F
  0
LAYER
  5
57
330
2
100
AcDbSymbolTableRecord
100
AcDbLayerTableRecord
  2
_0-7__0-2_蟇_豕___16-1
 70
     0
 62
     7
  6
CONTINUOUS
370
    -3
390
F
  0
LAYER
  5
58
330
2
100
AcDbSymbolTableRecord
100
AcDbLayerTableRecord
  2
_0-d__0-2_蟇_豕__ts
 70
     0
 62
     7
  6
CONTINUOUS
370
    -3
390
F
  0
LAYER
  5
59
330
2
100
AcDbSymbolTableRecord
100
AcDbLayerTableRecord
  2
_0-f__0-2_蟇_豕___29-1
 70
     0
 62
     7
  6
CONTINUOUS
370
    -3
390
F
  0
LAYER
  5
5A
330
2
100
AcDbSymbolTableRecord
100
AcDbLayerTableRecord
  2
_1-0__0-2_蟇_豕___30-1
 70
     0
 62
     7
  6
CONTINUOUS
370
    -3
390
F
  0
LAYER
  5
5B
330
2
100
AcDbSymbolTableRecord
100
AcDbLayerTableRecord
  2
_1-1__0-2_蟇_豕___27-1
 70
     0
 62
     7
  6
CONTINUOUS
370
    -3
390
F
  0
LAYER
  5
5C
330
2
100
AcDbSymbolTableRecord
100
AcDbLayerTableRecord
  2
_1-2__0-2_蟇_豕___1
 70
     0
 62
     7
  6
CONTINUOUS
370
    -3
390
F
  0
LAYER
  5
5D
330
2
100
AcDbSymbolTableRecord
100
AcDbLayerTableRecord
  2
_1-3__0-2_蟇_豕___3-1
 70
     0
 62
     7
  6
CONTINUOUS
370
    -3
390
F
  0
LAYER
  5
5E
330
2
100
AcDbSymbolTableRecord
100
AcDbLayerTableRecord
  2
_1-4__0-2_蟇_豕___2-1
 70
     0
 62
     7
  6
CONTINUOUS
370
    -3
390
F
  0
LAYER
  5
5F
330
2
100
AcDbSymbolTableRecord
100
AcDbLayerTableRecord
  2
_1-5__0-2_蟇_豕___5-1
 70
     0
 62
     7
  6
CONTINUOUS
370
    -3
390
F
  0
LAYER
  5
60
330
2
100
AcDbSymbolTableRecord
100
AcDbLayerTableRecord
  2
_1-6__0-2_蟇_豕___7-1
 70
     0
 62
     7
  6
CONTINUOUS
370
    -3
390
F
  0
LAYER
  5
61
330
2
100
AcDbSymbolTableRecord
100
AcDbLayerTableRecord
  2
_1-7__0-2_蟇_豕___8-1
 70
     0
 62
     7
  6
CONTINUOUS
370
    -3
390
F
  0
LAYER
  5
62
330
2
100
AcDbSymbolTableRecord
100
AcDbLayerTableRecord
  2
_1-8__0-2_蟇_豕___6-1
 70
     0
 62
     7
  6
CONTINUOUS
370
    -3
390
F
  0
LAYER
  5
63
330
2
100
AcDbSymbolTableRecord
100
AcDbLayerTableRecord
  2
_1-9__0-2_蟇_豕___12-1
 70
     0
 62
     7
  6
CONTINUOUS
370
    -3
390
F
  0
LAYER
  5
64
330
2
100
AcDbSymbolTableRecord
100
AcDbLayerTableRecord
  2
_1-a__0-2_蟇_豕___11-1
 70
     0
 62
     7
  6
CONTINUOUS
370
    -3
390
F
  0
LAYER
  5
65
330
2
100
AcDbSymbolTableRecord
100
AcDbLayerTableRecord
  2
_1-b__0-2_蟇_豕___21-1
 70
     0
 62
     7
  6
CONTINUOUS
370
    -3
390
F
  0
LAYER
  5
66
330
2
100
AcDbSymbolTableRecord
100
AcDbLayerTableRecord
  2
_1-c__0-2_蟇_豕___23-1
 70
     0
 62
     7
  6
CONTINUOUS
370
    -3
390
F
  0
LAYER
  5
67
330
2
100
AcDbSymbolTableRecord
100
AcDbLayerTableRecord
  2
_1-d__0-2_蟇_豕___24-1
 70
     0
 62
     7
  6
CONTINUOUS
370
    -3
390
F
  0
LAYER
  5
68
330
2
100
AcDbSymbolTableRecord
100
AcDbLayerTableRecord
  2
_1-e__0-2_蟇_豕___28-1
 70
     0
 62
     7
  6
CONTINUOUS
370
    -3
390
F
  0
LAYER
  5
69
330
2
100
AcDbSymbolTableRecord
100
AcDbLayerTableRecord
  2
_1-f__0-2_蟇_豕___26-1
 70
     0
 62
     7
  6
CONTINUOUS
370
    -3
390
F
  0
LAYER
  5
6A
330
2
100
AcDbSymbolTableRecord
100
AcDbLayerTableRecord
  2
ADD_LINE
 70
     0
 62
     7
  6
CONTINUOUS
370
    -3
390
F
  0
LAYER
  5
417
330
2
100
AcDbSymbolTableRecord
100
AcDbLayerTableRecord
  2
_0-c__0-3_Defpoints
 70
     0
 62
     7
  6
CONTINUOUS
370
    -3
390
F
  0
LAYER
  5
418
330
2
100
AcDbSymbolTableRecord
100
AcDbLayerTableRecord
  2
_0-e__0-2_蟇_豕___25-1
 70
     0
 62
     7
  6
CONTINUOUS
370
    -3
390
F
  0
LAYER
  5
419
330
2
100
AcDbSymbolTableRecord
100
AcDbLayerTableRecord
  2
_0-b__0-2_蟇_豕___18-1
 70
     0
 62
     7
  6
CONTINUOUS
370
    -3
390
F
  0
LAYER
  5
41A
330
2
100
AcDbSymbolTableRecord
100
AcDbLayerTableRecord
  2
_0-5__0-2_蟇_豕___4-1
 70
     0
 62
     7
  6
CONTINUOUS
370
    -3
390
F
  0
LAYER
  5
41B
330
2
100
AcDbSymbolTableRecord
100
AcDbLayerTableRecord
  2
_0-4__0-2_蟇_豕__0___50__0_0___71_______0___42__1_0____3__txt____4__bigfont_shx____0__ENDTAB____0__EOF__
 70
     0
 62
     7
  6
CONTINUOUS
370
    -3
390
F
  0
LAYER
  5
41C
330
2
100
AcDbSymbolTableRecord
100
AcDbLayerTableRecord
  2
_0-6__0-2_蟇_豕___13-1
 70
     0
 62
     7
  6
CONTINUOUS
370
    -3
390
F
  0
LAYER
  5
41D
330
2
100
AcDbSymbolTableRecord
100
AcDbLayerTableRecord
  2
_0-8__0-2_蟇_豕__3__100__AcDbSymbolTable___70_______1____0__STYLE____5__10__100__AcDbSymbolTableRecord_
 70
     0
 62
     7
  6
CONTINUOUS
370
    -3
390
F
  0
LAYER
  5
41E
330
2
100
AcDbSymbolTableRecord
100
AcDbLayerTableRecord
  2
_0-a__0-0_0
 70
     0
 62
     7
  6
CONTINUOUS
370
    -3
390
F
  0
LAYER
  5
41F
330
2
100
AcDbSymbolTableRecord
100
AcDbLayerTableRecord
  2
_0-9__0-2_蟇_豕___17-1
 70
     0
 62
     7
  6
CONTINUOUS
370
    -3
390
F
  0
ENDTAB
  0
TABLE
  2
STYLE
  5
3
330
0
100
AcDbSymbolTable
 70
     2
  0
STYLE
  5
12
330
3
100
AcDbSymbolTableRecord
100
AcDbTextStyleTableRecord
  2
STANDARD
 70
     0
 40
0.0
 41
1.0
 50
0.0
 71
     0
 42
0.2
  3
txt
  4
bigfont.shx
  0
STYLE
  5
54
330
3
100
AcDbSymbolTableRecord
100
AcDbTextStyleTableRecord
  2
TATEGAKI
 70
     4
 40
0.0
 41
1.0
 50
0.0
 71
     0
 42
1.0
  3
txt
  4
bigfont.shx
  0
ENDTAB
  0
TABLE
  2
VIEW
  5
6
330
0
100
AcDbSymbolTable
 70
     0
  0
ENDTAB
  0
TABLE
  2
UCS
  5
7
330
0
100
AcDbSymbolTable
 70
     0
  0
ENDTAB
  0
TABLE
  2
APPID
  5
9
330
0
100
AcDbSymbolTable
 70
     4
  0
APPID
  5
13
330
9
100
AcDbSymbolTableRecord
100
AcDbRegAppTableRecord
  2
ACAD
 70
     0
  0
APPID
  5
457
330
9
100
AcDbSymbolTableRecord
100
AcDbRegAppTableRecord
  2
ACAD_MLEADERVER
 70
     0
  0
APPID
  5
458
330
9
100
AcDbSymbolTableRecord
100
AcDbRegAppTableRecord
  2
ACAD_PSEXT
 70
     0
  0
APPID
  5
4F2
330
9
100
AcDbSymbolTableRecord
100
AcDbRegAppTableRecord
  2
ACAD_NAV_VCDISPLAY
 70
     0
  0
ENDTAB
  0
TABLE
  2
DIMSTYLE
  5
A
330
0
100
AcDbSymbolTable
 70
     1
100
AcDbDimStyleTable
 71
     0
  0
DIMSTYLE
105
6B
330
A
100
AcDbSymbolTableRecord
100
AcDbDimStyleTableRecord
  2
Standard
 70
     0
340
12
  0
ENDTAB
  0
TABLE
  2
BLOCK_RECORD
  5
1
330
0
100
AcDbSymbolTable
 70
    51
  0
BLOCK_RECORD
  5
1D
330
1
100
AcDbSymbolTableRecord
100
AcDbBlockTableRecord
  2
*Model_Space
340
1E
  0
BLOCK_RECORD
  5
1B
330
1
100
AcDbSymbolTableRecord
100
AcDbBlockTableRecord
  2
*Paper_Space
340
1C
  0
BLOCK_RECORD
  5
6D
330
1
100
AcDbSymbolTableRecord
100
AcDbBlockTableRecord
  2
-000-繧_繝_繝_繝__1
340
0
102
{BLKREFS
331
312
102
}
  0
BLOCK_RECORD
  5
7A
330
1
100
AcDbSymbolTableRecord
100
AcDbBlockTableRecord
  2
-001-繧_繝_繝_繝__2-1
340
0
102
{BLKREFS
331
31F
102
}
  0
BLOCK_RECORD
  5
87
330
1
100
AcDbSymbolTableRecord
100
AcDbBlockTableRecord
  2
-002-繧_繝_繝_繝__3-1
340
0
102
{BLKREFS
331
320
102
}
  0
BLOCK_RECORD
  5
94
330
1
100
AcDbSymbolTableRecord
100
AcDbBlockTableRecord
  2
-003-繧_繝_繝_繝__4-1
340
0
102
{BLKREFS
331
32D
102
}
  0
BLOCK_RECORD
  5
A1
330
1
100
AcDbSymbolTableRecord
100
AcDbBlockTableRecord
  2
-004-繧_繝_繝_繝__5-1
340
0
102
{BLKREFS
331
32E
102
}
  0
BLOCK_RECORD
  5
AE
330
1
100
AcDbSymbolTableRecord
100
AcDbBlockTableRecord
  2
-005-繧_繝_繝_繝__6-1
340
0
102
{BLKREFS
331
33B
102
}
  0
BLOCK_RECORD
  5
BB
330
1
100
AcDbSymbolTableRecord
100
AcDbBlockTableRecord
  2
-006-繧_繝_繝_繝__7-1
340
0
102
{BLKREFS
331
33C
102
}
  0
BLOCK_RECORD
  5
C8
330
1
100
AcDbSymbolTableRecord
100
AcDbBlockTableRecord
  2
-007-繧_繝_繝_繝__8-1
340
0
102
{BLKREFS
331
349
102
}
  0
BLOCK_RECORD
  5
D5
330
1
100
AcDbSymbolTableRecord
100
AcDbBlockTableRecord
  2
-008-繧_繝_繝_繝__9-1
340
0
102
{BLKREFS
331
34A
102
}
  0
BLOCK_RECORD
  5
E2
330
1
100
AcDbSymbolTableRecord
100
AcDbBlockTableRecord
  2
-009-繧_繝_繝_繝__10-1
340
0
102
{BLKREFS
331
34B
102
}
  0
BLOCK_RECORD
  5
EF
330
1
100
AcDbSymbolTableRecord
100
AcDbBlockTableRecord
  2
-010-繧_繝_繝_繝__11-1
340
0
102
{BLKREFS
331
34C
102
}
  0
BLOCK_RECORD
  5
FC
330
1
100
AcDbSymbolTableRecord
100
AcDbBlockTableRecord
  2
-011-繧_繝_繝_繝__12-1
340
0
102
{BLKREFS
331
34D
102
}
  0
BLOCK_RECORD
  5
109
330
1
100
AcDbSymbolTableRecord
100
AcDbBlockTableRecord
  2
-012-繧_繝_繝_繝__13-1
340
0
102
{BLKREFS
331
127
102
}
  0
BLOCK_RECORD
  5
110
330
1
100
AcDbSymbolTableRecord
100
AcDbBlockTableRecord
  2
-013-繧_繝_繝_繝__14-1
340
0
102
{BLKREFS
331
139
102
}
  0
BLOCK_RECORD
  5
126
330
1
100
AcDbSymbolTableRecord
100
AcDbBlockTableRecord
  2
-014-繧_繝_繝_繝__15-1
340
0
102
{BLKREFS
331
13E
102
}
  0
BLOCK_RECORD
  5
13C
330
1
100
AcDbSymbolTableRecord
100
AcDbBlockTableRecord
  2
-015-繧_繝_繝_繝__16-1
340
0
102
{BLKREFS
331
366
102
}
  0
BLOCK_RECORD
  5
141
330
1
100
AcDbSymbolTableRecord
100
AcDbBlockTableRecord
  2
-016-繧_繝_繝_繝__17-1
340
0
102
{BLKREFS
331
15F
102
}
  0
BLOCK_RECORD
  5
148
330
1
100
AcDbSymbolTableRecord
100
AcDbBlockTableRecord
  2
-017-繧_繝_繝_繝__18-1
340
0
102
{BLKREFS
331
171
102
}
  0
BLOCK_RECORD
  5
15E
330
1
100
AcDbSymbolTableRecord
100
AcDbBlockTableRecord
  2
-018-繧_繝_繝_繝__19-1
340
0
102
{BLKREFS
331
176
102
}
  0
BLOCK_RECORD
  5
174
330
1
100
AcDbSymbolTableRecord
100
AcDbBlockTableRecord
  2
-019-繧_繝_繝_繝__20-1
340
0
102
{BLKREFS
331
367
102
}
  0
BLOCK_RECORD
  5
179
330
1
100
AcDbSymbolTableRecord
100
AcDbBlockTableRecord
  2
-020-VW_EMPTYBALL
340
0
102
{BLKREFS
331
258
331
259
331
264
331
265
331
2C3
331
2C4
331
2CF
331
2D0
331
2DB
331
2DC
331
2E7
331
2E8
331
1E0
331
1E1
331
1EC
331
1ED
331
1F8
331
1F9
331
204
331
205
331
210
331
211
331
21C
331
21D
331
228
331
229
331
234
331
235
331
240
331
241
331
24C
331
24D
331
181
331
182
331
18F
331
190
331
19B
331
19C
331
1A7
331
1A8
331
1D4
331
1D5
102
}
  0
BLOCK_RECORD
  5
17D
330
1
100
AcDbSymbolTableRecord
100
AcDbBlockTableRecord
  2
-021-_D21
340
0
102
{BLKREFS
331
368
102
}
  0
BLOCK_RECORD
  5
189
330
1
100
AcDbSymbolTableRecord
100
AcDbBlockTableRecord
  2
-022-_D22
340
0
102
{BLKREFS
331
369
102
}
  0
BLOCK_RECORD
  5
197
330
1
100
AcDbSymbolTableRecord
100
AcDbBlockTableRecord
  2
-023-_D23
340
0
102
{BLKREFS
331
36A
102
}
  0
BLOCK_RECORD
  5
1A3
330
1
100
AcDbSymbolTableRecord
100
AcDbBlockTableRecord
  2
-024-_D24
340
0
102
{BLKREFS
331
36B
102
}
  0
BLOCK_RECORD
  5
1AF
330
1
100
AcDbSymbolTableRecord
100
AcDbBlockTableRecord
  2
-025-繧_繝_繝_繝__21-1
340
0
102
{BLKREFS
331
375
102
}
  0
BLOCK_RECORD
  5
1BA
330
1
100
AcDbSymbolTableRecord
100
AcDbBlockTableRecord
  2
-026-繧_繝_繝_繝__22-1
340
0
102
{BLKREFS
331
376
102
}
  0
BLOCK_RECORD
  5
1C5
330
1
100
AcDbSymbolTableRecord
100
AcDbBlockTableRecord
  2
-027-繧_繝_繝_繝__23-1
340
0
102
{BLKREFS
331
377
102
}
  0
BLOCK_RECORD
  5
1D0
330
1
100
AcDbSymbolTableRecord
100
AcDbBlockTableRecord
  2
-028-_D28
340
0
102
{BLKREFS
331
379
102
}
  0
BLOCK_RECORD
  5
1DC
330
1
100
AcDbSymbolTableRecord
100
AcDbBlockTableRecord
  2
-029-_D29
340
0
102
{BLKREFS
331
37A
102
}
  0
BLOCK_RECORD
  5
1E8
330
1
100
AcDbSymbolTableRecord
100
AcDbBlockTableRecord
  2
-030-_D30
340
0
102
{BLKREFS
331
37B
102
}
  0
BLOCK_RECORD
  5
1F4
330
1
100
AcDbSymbolTableRecord
100
AcDbBlockTableRecord
  2
-031-_D31
340
0
102
{BLKREFS
331
37C
102
}
  0
BLOCK_RECORD
  5
200
330
1
100
AcDbSymbolTableRecord
100
AcDbBlockTableRecord
  2
-032-_D32
340
0
102
{BLKREFS
331
37D
102
}
  0
BLOCK_RECORD
  5
20C
330
1
100
AcDbSymbolTableRecord
100
AcDbBlockTableRecord
  2
-033-_D33
340
0
102
{BLKREFS
331
37E
102
}
  0
BLOCK_RECORD
  5
218
330
1
100
AcDbSymbolTableRecord
100
AcDbBlockTableRecord
  2
-034-_D34
340
0
102
{BLKREFS
331
37F
102
}
  0
BLOCK_RECORD
  5
224
330
1
100
AcDbSymbolTableRecord
100
AcDbBlockTableRecord
  2
-035-_D35
340
0
102
{BLKREFS
331
380
102
}
  0
BLOCK_RECORD
  5
230
330
1
100
AcDbSymbolTableRecord
100
AcDbBlockTableRecord
  2
-036-_D36
340
0
102
{BLKREFS
331
381
102
}
  0
BLOCK_RECORD
  5
23C
330
1
100
AcDbSymbolTableRecord
100
AcDbBlockTableRecord
  2
-037-_D37
340
0
102
{BLKREFS
331
382
102
}
  0
BLOCK_RECORD
  5
248
330
1
100
AcDbSymbolTableRecord
100
AcDbBlockTableRecord
  2
-038-_D38
340
0
102
{BLKREFS
331
386
102
}
  0
BLOCK_RECORD
  5
254
330
1
100
AcDbSymbolTableRecord
100
AcDbBlockTableRecord
  2
-039-_D39
340
0
102
{BLKREFS
331
387
102
}
  0
BLOCK_RECORD
  5
260
330
1
100
AcDbSymbolTableRecord
100
AcDbBlockTableRecord
  2
-040-_D40
340
0
102
{BLKREFS
331
388
102
}
  0
BLOCK_RECORD
  5
26C
330
1
100
AcDbSymbolTableRecord
100
AcDbBlockTableRecord
  2
-041-繧_繝_繝_繝__24-1
340
0
102
{BLKREFS
331
389
102
}
  0
BLOCK_RECORD
  5
290
330
1
100
AcDbSymbolTableRecord
100
AcDbBlockTableRecord
  2
-042-繧_繝_繝_繝__25-1
340
0
102
{BLKREFS
331
38E
102
}
  0
BLOCK_RECORD
  5
29B
330
1
100
AcDbSymbolTableRecord
100
AcDbBlockTableRecord
  2
-043-繧_繝_繝_繝__26-1
340
0
102
{BLKREFS
331
38F
102
}
  0
BLOCK_RECORD
  5
2BF
330
1
100
AcDbSymbolTableRecord
100
AcDbBlockTableRecord
  2
-044-_D44
340
0
102
{BLKREFS
331
390
102
}
  0
BLOCK_RECORD
  5
2CB
330
1
100
AcDbSymbolTableRecord
100
AcDbBlockTableRecord
  2
-045-_D45
340
0
102
{BLKREFS
331
391
102
}
  0
BLOCK_RECORD
  5
2D7
330
1
100
AcDbSymbolTableRecord
100
AcDbBlockTableRecord
  2
-046-_D46
340
0
102
{BLKREFS
331
392
102
}
  0
BLOCK_RECORD
  5
2E3
330
1
100
AcDbSymbolTableRecord
100
AcDbBlockTableRecord
  2
-047-_D47
340
0
102
{BLKREFS
331
3BE
102
}
  0
BLOCK_RECORD
  5
2EF
330
1
100
AcDbSymbolTableRecord
100
AcDbBlockTableRecord
  2
-049-繧_繝_繝_繝__28-1
340
0
102
{BLKREFS
331
3CB
102
}
  0
BLOCK_RECORD
  5
2F6
330
1
100
AcDbSymbolTableRecord
100
AcDbBlockTableRecord
  2
-050-繧_繝_繝_繝__29-1
340
0
102
{BLKREFS
331
3F9
102
}
  0
BLOCK_RECORD
  5
2FD
330
1
100
AcDbSymbolTableRecord
100
AcDbBlockTableRecord
  2
-051-繧_繝_繝_繝__30-1
340
0
102
{BLKREFS
331
3FA
102
}
  0
ENDTAB
  0
ENDSEC
  0
SECTION
  2
BLOCKS
  0
BLOCK
  5
434
330
1D
100
AcDbEntity
  8
0
100
AcDbBlockBegin
  2
*Model_Space
 70
     0
 10
0.0
 20
0.0
 30
0.0
  3
*Model_Space
  1
Acad:XRef
  0
ENDBLK
  5
435
330
1D
100
AcDbEntity
  8
0
100
AcDbBlockEnd
  0
BLOCK
  5
432
330
1B
100
AcDbEntity
 67
     1
  8
0
100
AcDbBlockBegin
  2
*Paper_Space
 70
     0
 10
0.0
 20
0.0
 30
0.0
  3
*Paper_Space
  1
Acad:XRef
  0
ENDBLK
  5
433
330
1B
100
AcDbEntity
 67
     1
  8
0
100
AcDbBlockEnd
  0
BLOCK
  5
6C
330
6D
100
AcDbEntity
  8
0
100
AcDbBlockBegin
  2
-000-繧_繝_繝_繝__1
 70
     0
 10
0.0
 20
0.0
 30
0.0
  3
-000-繧_繝_繝_繝__1
  1

  0
LINE
  5
6E
330
6D
100
AcDbEntity
  8
_0-1_荳_闊_
  6
Continuous
 62
     7
100
AcDbLine
 10
-1339.226094812424
 20
-120.5860887382037
 30
0.0
 11
-1342.926094812424
 21
-114.0860887382037
 31
0.0
  0
LINE
  5
6F
330
6D
100
AcDbEntity
  8
_0-1_荳_闊_
  6
Continuous
 62
     7
100
AcDbLine
 10
-1350.526094812424
 20
-114.0860887382037
 30
0.0
 11
-1354.226094812424
 21
-120.5860887382037
 31
0.0
  0
LINE
  5
70
330
6D
100
AcDbEntity
  8
_0-1_荳_闊_
  6
Continuous
 62
     7
100
AcDbLine
 10
-1342.926094812424
 20
-127.0860887382037
 30
0.0
 11
-1339.226094812424
 21
-120.5860887382037
 31
0.0
  0
LINE
  5
71
330
6D
100
AcDbEntity
  8
_0-1_荳_闊_
  6
Continuous
 62
     7
100
AcDbLine
 10
-1346.726094812424
 20
-132.0860887382037
 30
0.0
 11
-1346.726094812424
 21
-109.0860887382037
 31
0.0
  0
LINE
  5
72
330
6D
100
AcDbEntity
  8
_0-1_荳_闊_
  6
Continuous
 62
     7
100
AcDbLine
 10
-1354.226094812424
 20
-120.5860887382037
 30
0.0
 11
-1350.526094812424
 21
-127.0860887382037
 31
0.0
  0
LINE
  5
73
330
6D
100
AcDbEntity
  8
_0-1_荳_闊_
  6
Continuous
 62
     7
100
AcDbLine
 10
-1358.226094812424
 20
-120.5860887382037
 30
0.0
 11
-1335.226094812424
 21
-120.5860887382037
 31
0.0
  0
CIRCLE
  5
74
330
6D
100
AcDbEntity
  8
_0-1_荳_闊_
  6
Continuous
 62
     7
100
AcDbCircle
 10
-1346.726094812424
 20
-120.5860887382037
 30
0.0
 40
6.5
  0
LINE
  5
75
330
6D
100
AcDbEntity
  8
_0-1_荳_闊_
  6
Continuous
 62
     7
100
AcDbLine
 10
-1342.926094812424
 20
-114.0860887382037
 30
0.0
 11
-1350.526094812424
 21
-114.0860887382037
 31
0.0
  0
LINE
  5
76
330
6D
100
AcDbEntity
  8
_0-1_荳_闊_
  6
Continuous
 62
     7
100
AcDbLine
 10
-1350.526094812424
 20
-127.0860887382037
 30
0.0
 11
-1342.926094812424
 21
-127.0860887382037
 31
0.0
  0
CIRCLE
  5
77
330
6D
100
AcDbEntity
  8
_0-1_荳_闊_
  6
Continuous
 62
     7
100
AcDbCircle
 10
-1346.726094812424
 20
-120.5860887382037
 30
0.0
 40
8.5
  0
ENDBLK
  5
78
330
6D
100
AcDbEntity
  8
0
100
AcDbBlockEnd
  0
BLOCK
  5
79
330
7A
100
AcDbEntity
  8
0
100
AcDbBlockBegin
  2
-001-繧_繝_繝_繝__2-1
 70
     0
 10
0.0
 20
0.0
 30
0.0
  3
-001-繧_繝_繝_繝__2-1
  1

  0
LINE
  5
7B
330
7A
100
AcDbEntity
  8
_0-1_荳_闊_
  6
Continuous
 62
     7
100
AcDbLine
 10
-1339.226094812424
 20
-159.3968887382036
 30
0.0
 11
-1342.926094812424
 21
-152.8968887382036
 31
0.0
  0
LINE
  5
7C
330
7A
100
AcDbEntity
  8
_0-1_荳_闊_
  6
Continuous
 62
     7
100
AcDbLine
 10
-1350.526094812424
 20
-152.8968887382036
 30
0.0
 11
-1354.226094812424
 21
-159.3968887382036
 31
0.0
  0
LINE
  5
7D
330
7A
100
AcDbEntity
  8
_0-1_荳_闊_
  6
Continuous
 62
     7
100
AcDbLine
 10
-1342.926094812424
 20
-165.8968887382036
 30
0.0
 11
-1339.226094812424
 21
-159.3968887382036
 31
0.0
  0
LINE
  5
7E
330
7A
100
AcDbEntity
  8
_0-1_荳_闊_
  6
Continuous
 62
     7
100
AcDbLine
 10
-1346.726094812424
 20
-170.8968887382036
 30
0.0
 11
-1346.726094812424
 21
-147.8968887382036
 31
0.0
  0
LINE
  5
7F
330
7A
100
AcDbEntity
  8
_0-1_荳_闊_
  6
Continuous
 62
     7
100
AcDbLine
 10
-1354.226094812424
 20
-159.3968887382036
 30
0.0
 11
-1350.526094812424
 21
-165.8968887382036
 31
0.0
  0
LINE
  5
80
330
7A
100
AcDbEntity
  8
_0-1_荳_闊_
  6
Continuous
 62
     7
100
AcDbLine
 10
-1358.226094812424
 20
-159.3968887382036
 30
0.0
 11
-1335.226094812424
 21
-159.3968887382036
 31
0.0
  0
CIRCLE
  5
81
330
7A
100
AcDbEntity
  8
_0-1_荳_闊_
  6
Continuous
 62
     7
100
AcDbCircle
 10
-1346.726094812424
 20
-159.3968887382036
 30
0.0
 40
6.5
  0
LINE
  5
82
330
7A
100
AcDbEntity
  8
_0-1_荳_闊_
  6
Continuous
 62
     7
100
AcDbLine
 10
-1342.926094812424
 20
-152.8968887382036
 30
0.0
 11
-1350.526094812424
 21
-152.8968887382036
 31
0.0
  0
LINE
  5
83
330
7A
100
AcDbEntity
  8
_0-1_荳_闊_
  6
Continuous
 62
     7
100
AcDbLine
 10
-1350.526094812424
 20
-165.8968887382036
 30
0.0
 11
-1342.926094812424
 21
-165.8968887382036
 31
0.0
  0
CIRCLE
  5
84
330
7A
100
AcDbEntity
  8
_0-1_荳_闊_
  6
Continuous
 62
     7
100
AcDbCircle
 10
-1346.726094812424
 20
-159.3968887382036
 30
0.0
 40
8.5
  0
ENDBLK
  5
85
330
7A
100
AcDbEntity
  8
0
100
AcDbBlockEnd
  0
BLOCK
  5
86
330
87
100
AcDbEntity
  8
0
100
AcDbBlockBegin
  2
-002-繧_繝_繝_繝__3-1
 70
     0
 10
0.0
 20
0.0
 30
0.0
  3
-002-繧_繝_繝_繝__3-1
  1

  0
LINE
  5
88
330
87
100
AcDbEntity
  8
_0-1_荳_闊_
  6
Continuous
 62
     7
100
AcDbLine
 10
216.5139051875757
 20
-120.6968887382036
 30
0.0
 11
212.8139051875754
 21
-114.1968887382036
 31
0.0
  0
LINE
  5
89
330
87
100
AcDbEntity
  8
_0-1_荳_闊_
  6
Continuous
 62
     7
100
AcDbLine
 10
205.2139051875755
 20
-114.1968887382036
 30
0.0
 11
201.5139051875757
 21
-120.6968887382036
 31
0.0
  0
LINE
  5
8A
330
87
100
AcDbEntity
  8
_0-1_荳_闊_
  6
Continuous
 62
     7
100
AcDbLine
 10
212.8139051875754
 20
-127.1968887382036
 30
0.0
 11
216.5139051875757
 21
-120.6968887382036
 31
0.0
  0
LINE
  5
8B
330
87
100
AcDbEntity
  8
_0-1_荳_闊_
  6
Continuous
 62
     7
100
AcDbLine
 10
209.0139051875757
 20
-132.1968887382036
 30
0.0
 11
209.0139051875757
 21
-109.1968887382036
 31
0.0
  0
LINE
  5
8C
330
87
100
AcDbEntity
  8
_0-1_荳_闊_
  6
Continuous
 62
     7
100
AcDbLine
 10
201.5139051875757
 20
-120.6968887382036
 30
0.0
 11
205.2139051875755
 21
-127.1968887382036
 31
0.0
  0
LINE
  5
8D
330
87
100
AcDbEntity
  8
_0-1_荳_闊_
  6
Continuous
 62
     7
100
AcDbLine
 10
197.5139051875757
 20
-120.6968887382036
 30
0.0
 11
220.5139051875752
 21
-120.6968887382036
 31
0.0
  0
CIRCLE
  5
8E
330
87
100
AcDbEntity
  8
_0-1_荳_闊_
  6
Continuous
 62
     7
100
AcDbCircle
 10
209.0139051875757
 20
-120.6968887382036
 30
0.0
 40
6.5
  0
LINE
  5
8F
330
87
100
AcDbEntity
  8
_0-1_荳_闊_
  6
Continuous
 62
     7
100
AcDbLine
 10
212.8139051875754
 20
-114.1968887382036
 30
0.0
 11
205.2139051875755
 21
-114.1968887382036
 31
0.0
  0
LINE
  5
90
330
87
100
AcDbEntity
  8
_0-1_荳_闊_
  6
Continuous
 62
     7
100
AcDbLine
 10
205.2139051875755
 20
-127.1968887382036
 30
0.0
 11
212.8139051875754
 21
-127.1968887382036
 31
0.0
  0
CIRCLE
  5
91
330
87
100
AcDbEntity
  8
_0-1_荳_闊_
  6
Continuous
 62
     7
100
AcDbCircle
 10
209.0139051875757
 20
-120.6968887382036
 30
0.0
 40
8.5
  0
ENDBLK
  5
92
330
87
100
AcDbEntity
  8
0
100
AcDbBlockEnd
  0
BLOCK
  5
93
330
94
100
AcDbEntity
  8
0
100
AcDbBlockBegin
  2
-003-繧_繝_繝_繝__4-1
 70
     0
 10
0.0
 20
0.0
 30
0.0
  3
-003-繧_繝_繝_繝__4-1
  1

  0
LINE
  5
95
330
94
100
AcDbEntity
  8
_0-1_荳_闊_
  6
Continuous
 62
     7
100
AcDbLine
 10
216.5139051875757
 20
-159.5076887382038
 30
0.0
 11
212.8139051875754
 21
-153.0076887382038
 31
0.0
  0
LINE
  5
96
330
94
100
AcDbEntity
  8
_0-1_荳_闊_
  6
Continuous
 62
     7
100
AcDbLine
 10
205.2139051875755
 20
-153.0076887382038
 30
0.0
 11
201.5139051875757
 21
-159.5076887382038
 31
0.0
  0
LINE
  5
97
330
94
100
AcDbEntity
  8
_0-1_荳_闊_
  6
Continuous
 62
     7
100
AcDbLine
 10
212.8139051875754
 20
-166.0076887382038
 30
0.0
 11
216.5139051875757
 21
-159.5076887382038
 31
0.0
  0
LINE
  5
98
330
94
100
AcDbEntity
  8
_0-1_荳_闊_
  6
Continuous
 62
     7
100
AcDbLine
 10
209.0139051875757
 20
-171.0076887382038
 30
0.0
 11
209.0139051875757
 21
-148.0076887382038
 31
0.0
  0
LINE
  5
99
330
94
100
AcDbEntity
  8
_0-1_荳_闊_
  6
Continuous
 62
     7
100
AcDbLine
 10
201.5139051875757
 20
-159.5076887382038
 30
0.0
 11
205.2139051875755
 21
-166.0076887382038
 31
0.0
  0
LINE
  5
9A
330
94
100
AcDbEntity
  8
_0-1_荳_闊_
  6
Continuous
 62
     7
100
AcDbLine
 10
197.5139051875757
 20
-159.5076887382038
 30
0.0
 11
220.5139051875752
 21
-159.5076887382038
 31
0.0
  0
CIRCLE
  5
9B
330
94
100
AcDbEntity
  8
_0-1_荳_闊_
  6
Continuous
 62
     7
100
AcDbCircle
 10
209.0139051875757
 20
-159.5076887382038
 30
0.0
 40
6.5
  0
LINE
  5
9C
330
94
100
AcDbEntity
  8
_0-1_荳_闊_
  6
Continuous
 62
     7
100
AcDbLine
 10
212.8139051875754
 20
-153.0076887382038
 30
0.0
 11
205.2139051875755
 21
-153.0076887382038
 31
0.0
  0
LINE
  5
9D
330
94
100
AcDbEntity
  8
_0-1_荳_闊_
  6
Continuous
 62
     7
100
AcDbLine
 10
205.2139051875755
 20
-166.0076887382038
 30
0.0
 11
212.8139051875754
 21
-166.0076887382038
 31
0.0
  0
CIRCLE
  5
9E
330
94
100
AcDbEntity
  8
_0-1_荳_闊_
  6
Continuous
 62
     7
100
AcDbCircle
 10
209.0139051875757
 20
-159.5076887382038
 30
0.0
 40
8.5
  0
ENDBLK
  5
9F
330
94
100
AcDbEntity
  8
0
100
AcDbBlockEnd
  0
BLOCK
  5
A0
330
A1
100
AcDbEntity
  8
0
100
AcDbBlockBegin
  2
-004-繧_繝_繝_繝__5-1
 70
     0
 10
0.0
 20
0.0
 30
0.0
  3
-004-繧_繝_繝_繝__5-1
  1

  0
LINE
  5
A2
330
A1
100
AcDbEntity
  8
_0-1_荳_闊_
  6
Continuous
 62
     7
100
AcDbLine
 10
-305.8460948124244
 20
-120.6968887382036
 30
0.0
 11
-309.5460948124245
 21
-114.1968887382036
 31
0.0
  0
LINE
  5
A3
330
A1
100
AcDbEntity
  8
_0-1_荳_闊_
  6
Continuous
 62
     7
100
AcDbLine
 10
-317.1460948124244
 20
-114.1968887382036
 30
0.0
 11
-320.8460948124244
 21
-120.6968887382036
 31
0.0
  0
LINE
  5
A4
330
A1
100
AcDbEntity
  8
_0-1_荳_闊_
  6
Continuous
 62
     7
100
AcDbLine
 10
-309.5460948124245
 20
-127.1968887382036
 30
0.0
 11
-305.8460948124244
 21
-120.6968887382036
 31
0.0
  0
LINE
  5
A5
330
A1
100
AcDbEntity
  8
_0-1_荳_闊_
  6
Continuous
 62
     7
100
AcDbLine
 10
-313.3460948124244
 20
-132.1968887382036
 30
0.0
 11
-313.3460948124244
 21
-109.1968887382036
 31
0.0
  0
LINE
  5
A6
330
A1
100
AcDbEntity
  8
_0-1_荳_闊_
  6
Continuous
 62
     7
100
AcDbLine
 10
-320.8460948124244
 20
-120.6968887382036
 30
0.0
 11
-317.1460948124244
 21
-127.1968887382036
 31
0.0
  0
LINE
  5
A7
330
A1
100
AcDbEntity
  8
_0-1_荳_闊_
  6
Continuous
 62
     7
100
AcDbLine
 10
-324.8460948124244
 20
-120.6968887382036
 30
0.0
 11
-301.8460948124244
 21
-120.6968887382036
 31
0.0
  0
CIRCLE
  5
A8
330
A1
100
AcDbEntity
  8
_0-1_荳_闊_
  6
Continuous
 62
     7
100
AcDbCircle
 10
-313.3460948124244
 20
-120.6968887382036
 30
0.0
 40
6.5
  0
LINE
  5
A9
330
A1
100
AcDbEntity
  8
_0-1_荳_闊_
  6
Continuous
 62
     7
100
AcDbLine
 10
-309.5460948124245
 20
-114.1968887382036
 30
0.0
 11
-317.1460948124244
 21
-114.1968887382036
 31
0.0
  0
LINE
  5
AA
330
A1
100
AcDbEntity
  8
_0-1_荳_闊_
  6
Continuous
 62
     7
100
AcDbLine
 10
-317.1460948124244
 20
-127.1968887382036
 30
0.0
 11
-309.5460948124245
 21
-127.1968887382036
 31
0.0
  0
CIRCLE
  5
AB
330
A1
100
AcDbEntity
  8
_0-1_荳_闊_
  6
Continuous
 62
     7
100
AcDbCircle
 10
-313.3460948124244
 20
-120.6968887382036
 30
0.0
 40
8.5
  0
ENDBLK
  5
AC
330
A1
100
AcDbEntity
  8
0
100
AcDbBlockEnd
  0
BLOCK
  5
AD
330
AE
100
AcDbEntity
  8
0
100
AcDbBlockBegin
  2
-005-繧_繝_繝_繝__6-1
 70
     0
 10
0.0
 20
0.0
 30
0.0
  3
-005-繧_繝_繝_繝__6-1
  1

  0
LINE
  5
AF
330
AE
100
AcDbEntity
  8
_0-1_荳_闊_
  6
Continuous
 62
     7
100
AcDbLine
 10
-305.8460948124244
 20
-159.5076887382038
 30
0.0
 11
-309.5460948124245
 21
-153.0076887382038
 31
0.0
  0
LINE
  5
B0
330
AE
100
AcDbEntity
  8
_0-1_荳_闊_
  6
Continuous
 62
     7
100
AcDbLine
 10
-317.1460948124244
 20
-153.0076887382038
 30
0.0
 11
-320.8460948124244
 21
-159.5076887382038
 31
0.0
  0
LINE
  5
B1
330
AE
100
AcDbEntity
  8
_0-1_荳_闊_
  6
Continuous
 62
     7
100
AcDbLine
 10
-309.5460948124245
 20
-166.0076887382038
 30
0.0
 11
-305.8460948124244
 21
-159.5076887382038
 31
0.0
  0
LINE
  5
B2
330
AE
100
AcDbEntity
  8
_0-1_荳_闊_
  6
Continuous
 62
     7
100
AcDbLine
 10
-313.3460948124244
 20
-171.0076887382038
 30
0.0
 11
-313.3460948124244
 21
-148.0076887382038
 31
0.0
  0
LINE
  5
B3
330
AE
100
AcDbEntity
  8
_0-1_荳_闊_
  6
Continuous
 62
     7
100
AcDbLine
 10
-320.8460948124244
 20
-159.5076887382038
 30
0.0
 11
-317.1460948124244
 21
-166.0076887382038
 31
0.0
  0
LINE
  5
B4
330
AE
100
AcDbEntity
  8
_0-1_荳_闊_
  6
Continuous
 62
     7
100
AcDbLine
 10
-324.8460948124244
 20
-159.5076887382038
 30
0.0
 11
-301.8460948124244
 21
-159.5076887382038
 31
0.0
  0
CIRCLE
  5
B5
330
AE
100
AcDbEntity
  8
_0-1_荳_闊_
  6
Continuous
 62
     7
100
AcDbCircle
 10
-313.3460948124244
 20
-159.5076887382038
 30
0.0
 40
6.5
  0
LINE
  5
B6
330
AE
100
AcDbEntity
  8
_0-1_荳_闊_
  6
Continuous
 62
     7
100
AcDbLine
 10
-309.5460948124245
 20
-153.0076887382038
 30
0.0
 11
-317.1460948124244
 21
-153.0076887382038
 31
0.0
  0
LINE
  5
B7
330
AE
100
AcDbEntity
  8
_0-1_荳_闊_
  6
Continuous
 62
     7
100
AcDbLine
 10
-317.1460948124244
 20
-166.0076887382038
 30
0.0
 11
-309.5460948124245
 21
-166.0076887382038
 31
0.0
  0
CIRCLE
  5
B8
330
AE
100
AcDbEntity
  8
_0-1_荳_闊_
  6
Continuous
 62
     7
100
AcDbCircle
 10
-313.3460948124244
 20
-159.5076887382038
 30
0.0
 40
8.5
  0
ENDBLK
  5
B9
330
AE
100
AcDbEntity
  8
0
100
AcDbBlockEnd
  0
BLOCK
  5
BA
330
BB
100
AcDbEntity
  8
0
100
AcDbBlockBegin
  2
-006-繧_繝_繝_繝__7-1
 70
     0
 10
0.0
 20
0.0
 30
0.0
  3
-006-繧_繝_繝_繝__7-1
  1

  0
LINE
  5
BC
330
BB
100
AcDbEntity
  8
_0-1_荳_闊_
  6
Continuous
 62
     7
100
AcDbLine
 10
-833.2860948124245
 20
-120.5860887382037
 30
0.0
 11
-829.5860948124245
 21
-114.0860887382037
 31
0.0
  0
LINE
  5
BD
330
BB
100
AcDbEntity
  8
_0-1_荳_闊_
  6
Continuous
 62
     7
100
AcDbLine
 10
-821.9860948124242
 20
-114.0860887382037
 30
0.0
 11
-818.2860948124245
 21
-120.5860887382037
 31
0.0
  0
LINE
  5
BE
330
BB
100
AcDbEntity
  8
_0-1_荳_闊_
  6
Continuous
 62
     7
100
AcDbLine
 10
-829.5860948124245
 20
-127.0860887382037
 30
0.0
 11
-833.2860948124245
 21
-120.5860887382037
 31
0.0
  0
LINE
  5
BF
330
BB
100
AcDbEntity
  8
_0-1_荳_闊_
  6
Continuous
 62
     7
100
AcDbLine
 10
-825.7860948124244
 20
-132.0860887382037
 30
0.0
 11
-825.7860948124244
 21
-109.0860887382037
 31
0.0
  0
LINE
  5
C0
330
BB
100
AcDbEntity
  8
_0-1_荳_闊_
  6
Continuous
 62
     7
100
AcDbLine
 10
-818.2860948124245
 20
-120.5860887382037
 30
0.0
 11
-821.9860948124242
 21
-127.0860887382037
 31
0.0
  0
LINE
  5
C1
330
BB
100
AcDbEntity
  8
_0-1_荳_闊_
  6
Continuous
 62
     7
100
AcDbLine
 10
-814.2860948124244
 20
-120.5860887382037
 30
0.0
 11
-837.2860948124243
 21
-120.5860887382037
 31
0.0
  0
CIRCLE
  5
C2
330
BB
100
AcDbEntity
  8
_0-1_荳_闊_
  6
Continuous
 62
     7
100
AcDbCircle
 10
-825.7860948124244
 20
-120.5860887382037
 30
0.0
 40
6.5
  0
LINE
  5
C3
330
BB
100
AcDbEntity
  8
_0-1_荳_闊_
  6
Continuous
 62
     7
100
AcDbLine
 10
-829.5860948124245
 20
-114.0860887382037
 30
0.0
 11
-821.9860948124242
 21
-114.0860887382037
 31
0.0
  0
LINE
  5
C4
330
BB
100
AcDbEntity
  8
_0-1_荳_闊_
  6
Continuous
 62
     7
100
AcDbLine
 10
-821.9860948124242
 20
-127.0860887382037
 30
0.0
 11
-829.5860948124245
 21
-127.0860887382037
 31
0.0
  0
CIRCLE
  5
C5
330
BB
100
AcDbEntity
  8
_0-1_荳_闊_
  6
Continuous
 62
     7
100
AcDbCircle
 10
-825.7860948124244
 20
-120.5860887382037
 30
0.0
 40
8.5
  0
ENDBLK
  5
C6
330
BB
100
AcDbEntity
  8
0
100
AcDbBlockEnd
  0
BLOCK
  5
C7
330
C8
100
AcDbEntity
  8
0
100
AcDbBlockBegin
  2
-007-繧_繝_繝_繝__8-1
 70
     0
 10
0.0
 20
0.0
 30
0.0
  3
-007-繧_繝_繝_繝__8-1
  1

  0
LINE
  5
C9
330
C8
100
AcDbEntity
  8
_0-1_荳_闊_
  6
Continuous
 62
     7
100
AcDbLine
 10
-833.2860948124245
 20
-159.3968887382036
 30
0.0
 11
-829.5860948124245
 21
-152.8968887382036
 31
0.0
  0
LINE
  5
CA
330
C8
100
AcDbEntity
  8
_0-1_荳_闊_
  6
Continuous
 62
     7
100
AcDbLine
 10
-821.9860948124242
 20
-152.8968887382036
 30
0.0
 11
-818.2860948124245
 21
-159.3968887382036
 31
0.0
  0
LINE
  5
CB
330
C8
100
AcDbEntity
  8
_0-1_荳_闊_
  6
Continuous
 62
     7
100
AcDbLine
 10
-829.5860948124245
 20
-165.8968887382036
 30
0.0
 11
-833.2860948124245
 21
-159.3968887382036
 31
0.0
  0
LINE
  5
CC
330
C8
100
AcDbEntity
  8
_0-1_荳_闊_
  6
Continuous
 62
     7
100
AcDbLine
 10
-825.7860948124244
 20
-170.8968887382036
 30
0.0
 11
-825.7860948124244
 21
-147.8968887382036
 31
0.0
  0
LINE
  5
CD
330
C8
100
AcDbEntity
  8
_0-1_荳_闊_
  6
Continuous
 62
     7
100
AcDbLine
 10
-818.2860948124245
 20
-159.3968887382036
 30
0.0
 11
-821.9860948124242
 21
-165.8968887382036
 31
0.0
  0
LINE
  5
CE
330
C8
100
AcDbEntity
  8
_0-1_荳_闊_
  6
Continuous
 62
     7
100
AcDbLine
 10
-814.2860948124244
 20
-159.3968887382036
 30
0.0
 11
-837.2860948124243
 21
-159.3968887382036
 31
0.0
  0
CIRCLE
  5
CF
330
C8
100
AcDbEntity
  8
_0-1_荳_闊_
  6
Continuous
 62
     7
100
AcDbCircle
 10
-825.7860948124244
 20
-159.3968887382036
 30
0.0
 40
6.5
  0
LINE
  5
D0
330
C8
100
AcDbEntity
  8
_0-1_荳_闊_
  6
Continuous
 62
     7
100
AcDbLine
 10
-829.5860948124245
 20
-152.8968887382036
 30
0.0
 11
-821.9860948124242
 21
-152.8968887382036
 31
0.0
  0
LINE
  5
D1
330
C8
100
AcDbEntity
  8
_0-1_荳_闊_
  6
Continuous
 62
     7
100
AcDbLine
 10
-821.9860948124242
 20
-165.8968887382036
 30
0.0
 11
-829.5860948124245
 21
-165.8968887382036
 31
0.0
  0
CIRCLE
  5
D2
330
C8
100
AcDbEntity
  8
_0-1_荳_闊_
  6
Continuous
 62
     7
100
AcDbCircle
 10
-825.7860948124244
 20
-159.3968887382036
 30
0.0
 40
8.5
  0
ENDBLK
  5
D3
330
C8
100
AcDbEntity
  8
0
100
AcDbBlockEnd
  0
BLOCK
  5
D4
330
D5
100
AcDbEntity
  8
0
100
AcDbBlockBegin
  2
-008-繧_繝_繝_繝__9-1
 70
     0
 10
0.0
 20
0.0
 30
0.0
  3
-008-繧_繝_繝_繝__9-1
  1

  0
LINE
  5
D6
330
D5
100
AcDbEntity
  8
_0-1_荳_闊_
  6
Continuous
 62
     7
100
AcDbLine
 10
115.5739051875756
 20
-116.8860887382036
 30
0.0
 11
144.5739051875756
 21
-116.8860887382036
 31
0.0
  0
LINE
  5
D7
330
D5
100
AcDbEntity
  8
_0-1_荳_闊_
  6
Continuous
 62
     7
100
AcDbLine
 10
134.6739051875755
 20
-108.8860887382036
 30
0.0
 11
125.4739051875753
 21
-108.8860887382036
 31
0.0
  0
LINE
  5
D8
330
D5
100
AcDbEntity
  8
_0-1_荳_闊_
  6
Continuous
 62
     7
100
AcDbLine
 10
125.4739051875753
 20
-124.8860887382036
 30
0.0
 11
134.6739051875755
 21
-124.8860887382036
 31
0.0
  0
LINE
  5
D9
330
D5
100
AcDbEntity
  8
_0-1_荳_闊_
  6
Continuous
 62
     7
100
AcDbLine
 10
125.4739051875753
 20
-108.8860887382036
 30
0.0
 11
120.8739051875754
 21
-116.8860887382036
 31
0.0
  0
LINE
  5
DA
330
D5
100
AcDbEntity
  8
_0-1_荳_闊_
  6
Continuous
 62
     7
100
AcDbLine
 10
139.2739051875755
 20
-116.8860887382036
 30
0.0
 11
134.6739051875755
 21
-108.8860887382036
 31
0.0
  0
CIRCLE
  5
DB
330
D5
100
AcDbEntity
  8
_0-1_荳_闊_
  6
Continuous
 62
     7
100
AcDbCircle
 10
130.0739051875756
 20
-116.8860887382036
 30
0.0
 40
10.5
  0
LINE
  5
DC
330
D5
100
AcDbEntity
  8
_0-1_荳_闊_
  6
Continuous
 62
     7
100
AcDbLine
 10
130.0739051875756
 20
-131.3860887382036
 30
0.0
 11
130.0739051875756
 21
-102.3860887382036
 31
0.0
  0
LINE
  5
DD
330
D5
100
AcDbEntity
  8
_0-1_荳_闊_
  6
Continuous
 62
     7
100
AcDbLine
 10
120.8739051875754
 20
-116.8860887382036
 30
0.0
 11
125.4739051875753
 21
-124.8860887382036
 31
0.0
  0
LINE
  5
DE
330
D5
100
AcDbEntity
  8
_0-1_荳_闊_
  6
Continuous
 62
     7
100
AcDbLine
 10
134.6739051875755
 20
-124.8860887382036
 30
0.0
 11
139.2739051875755
 21
-116.8860887382036
 31
0.0
  0
CIRCLE
  5
DF
330
D5
100
AcDbEntity
  8
_0-1_荳_闊_
  6
Continuous
 62
     7
100
AcDbCircle
 10
130.0739051875756
 20
-116.8860887382036
 30
0.0
 40
8.0
  0
ENDBLK
  5
E0
330
D5
100
AcDbEntity
  8
0
100
AcDbBlockEnd
  0
BLOCK
  5
E1
330
E2
100
AcDbEntity
  8
0
100
AcDbBlockBegin
  2
-009-繧_繝_繝_繝__10-1
 70
     0
 10
0.0
 20
0.0
 30
0.0
  3
-009-繧_繝_繝_繝__10-1
  1

  0
LINE
  5
E3
330
E2
100
AcDbEntity
  8
_0-1_荳_闊_
  6
Continuous
 62
     7
100
AcDbLine
 10
115.5739051875756
 20
-160.3968887382036
 30
0.0
 11
144.5739051875756
 21
-160.3968887382036
 31
0.0
  0
LINE
  5
E4
330
E2
100
AcDbEntity
  8
_0-1_荳_闊_
  6
Continuous
 62
     7
100
AcDbLine
 10
134.6739051875755
 20
-152.3968887382036
 30
0.0
 11
125.4739051875753
 21
-152.3968887382036
 31
0.0
  0
LINE
  5
E5
330
E2
100
AcDbEntity
  8
_0-1_荳_闊_
  6
Continuous
 62
     7
100
AcDbLine
 10
125.4739051875753
 20
-168.3968887382036
 30
0.0
 11
134.6739051875755
 21
-168.3968887382036
 31
0.0
  0
LINE
  5
E6
330
E2
100
AcDbEntity
  8
_0-1_荳_闊_
  6
Continuous
 62
     7
100
AcDbLine
 10
125.4739051875753
 20
-152.3968887382036
 30
0.0
 11
120.8739051875754
 21
-160.3968887382036
 31
0.0
  0
LINE
  5
E7
330
E2
100
AcDbEntity
  8
_0-1_荳_闊_
  6
Continuous
 62
     7
100
AcDbLine
 10
139.2739051875755
 20
-160.3968887382036
 30
0.0
 11
134.6739051875755
 21
-152.3968887382036
 31
0.0
  0
CIRCLE
  5
E8
330
E2
100
AcDbEntity
  8
_0-1_荳_闊_
  6
Continuous
 62
     7
100
AcDbCircle
 10
130.0739051875756
 20
-160.3968887382036
 30
0.0
 40
10.5
  0
LINE
  5
E9
330
E2
100
AcDbEntity
  8
_0-1_荳_闊_
  6
Continuous
 62
     7
100
AcDbLine
 10
130.0739051875756
 20
-174.8968887382036
 30
0.0
 11
130.0739051875756
 21
-145.8968887382036
 31
0.0
  0
LINE
  5
EA
330
E2
100
AcDbEntity
  8
_0-1_荳_闊_
  6
Continuous
 62
     7
100
AcDbLine
 10
120.8739051875754
 20
-160.3968887382036
 30
0.0
 11
125.4739051875753
 21
-168.3968887382036
 31
0.0
  0
LINE
  5
EB
330
E2
100
AcDbEntity
  8
_0-1_荳_闊_
  6
Continuous
 62
     7
100
AcDbLine
 10
134.6739051875755
 20
-168.3968887382036
 30
0.0
 11
139.2739051875755
 21
-160.3968887382036
 31
0.0
  0
CIRCLE
  5
EC
330
E2
100
AcDbEntity
  8
_0-1_荳_闊_
  6
Continuous
 62
     7
100
AcDbCircle
 10
130.0739051875756
 20
-160.3968887382036
 30
0.0
 40
8.0
  0
ENDBLK
  5
ED
330
E2
100
AcDbEntity
  8
0
100
AcDbBlockEnd
  0
BLOCK
  5
EE
330
EF
100
AcDbEntity
  8
0
100
AcDbBlockBegin
  2
-010-繧_繝_繝_繝__11-1
 70
     0
 10
0.0
 20
0.0
 30
0.0
  3
-010-繧_繝_繝_繝__11-1
  1

  0
LINE
  5
F0
330
EF
100
AcDbEntity
  8
_0-1_荳_闊_
  6
Continuous
 62
     7
100
AcDbLine
 10
-1284.426094812424
 20
-116.8860887382036
 30
0.0
 11
-1255.426094812424
 21
-116.8860887382036
 31
0.0
  0
LINE
  5
F1
330
EF
100
AcDbEntity
  8
_0-1_荳_闊_
  6
Continuous
 62
     7
100
AcDbLine
 10
-1265.326094812424
 20
-108.8860887382036
 30
0.0
 11
-1274.526094812425
 21
-108.8860887382036
 31
0.0
  0
LINE
  5
F2
330
EF
100
AcDbEntity
  8
_0-1_荳_闊_
  6
Continuous
 62
     7
100
AcDbLine
 10
-1274.526094812425
 20
-124.8860887382036
 30
0.0
 11
-1265.326094812424
 21
-124.8860887382036
 31
0.0
  0
LINE
  5
F3
330
EF
100
AcDbEntity
  8
_0-1_荳_闊_
  6
Continuous
 62
     7
100
AcDbLine
 10
-1274.526094812425
 20
-108.8860887382036
 30
0.0
 11
-1279.126094812425
 21
-116.8860887382036
 31
0.0
  0
LINE
  5
F4
330
EF
100
AcDbEntity
  8
_0-1_荳_闊_
  6
Continuous
 62
     7
100
AcDbLine
 10
-1260.726094812424
 20
-116.8860887382036
 30
0.0
 11
-1265.326094812424
 21
-108.8860887382036
 31
0.0
  0
CIRCLE
  5
F5
330
EF
100
AcDbEntity
  8
_0-1_荳_闊_
  6
Continuous
 62
     7
100
AcDbCircle
 10
-1269.926094812424
 20
-116.8860887382036
 30
0.0
 40
10.5
  0
LINE
  5
F6
330
EF
100
AcDbEntity
  8
_0-1_荳_闊_
  6
Continuous
 62
     7
100
AcDbLine
 10
-1269.926094812424
 20
-131.3860887382036
 30
0.0
 11
-1269.926094812424
 21
-102.3860887382036
 31
0.0
  0
LINE
  5
F7
330
EF
100
AcDbEntity
  8
_0-1_荳_闊_
  6
Continuous
 62
     7
100
AcDbLine
 10
-1279.126094812425
 20
-116.8860887382036
 30
0.0
 11
-1274.526094812425
 21
-124.8860887382036
 31
0.0
  0
LINE
  5
F8
330
EF
100
AcDbEntity
  8
_0-1_荳_闊_
  6
Continuous
 62
     7
100
AcDbLine
 10
-1265.326094812424
 20
-124.8860887382036
 30
0.0
 11
-1260.726094812424
 21
-116.8860887382036
 31
0.0
  0
CIRCLE
  5
F9
330
EF
100
AcDbEntity
  8
_0-1_荳_闊_
  6
Continuous
 62
     7
100
AcDbCircle
 10
-1269.926094812424
 20
-116.8860887382036
 30
0.0
 40
8.0
  0
ENDBLK
  5
FA
330
EF
100
AcDbEntity
  8
0
100
AcDbBlockEnd
  0
BLOCK
  5
FB
330
FC
100
AcDbEntity
  8
0
100
AcDbBlockBegin
  2
-011-繧_繝_繝_繝__12-1
 70
     0
 10
0.0
 20
0.0
 30
0.0
  3
-011-繧_繝_繝_繝__12-1
  1

  0
LINE
  5
FD
330
FC
100
AcDbEntity
  8
_0-1_荳_闊_
  6
Continuous
 62
     7
100
AcDbLine
 10
-1284.426094812424
 20
-160.3968887382036
 30
0.0
 11
-1255.426094812424
 21
-160.3968887382036
 31
0.0
  0
LINE
  5
FE
330
FC
100
AcDbEntity
  8
_0-1_荳_闊_
  6
Continuous
 62
     7
100
AcDbLine
 10
-1265.326094812424
 20
-152.3968887382036
 30
0.0
 11
-1274.526094812425
 21
-152.3968887382036
 31
0.0
  0
LINE
  5
FF
330
FC
100
AcDbEntity
  8
_0-1_荳_闊_
  6
Continuous
 62
     7
100
AcDbLine
 10
-1274.526094812425
 20
-168.3968887382036
 30
0.0
 11
-1265.326094812424
 21
-168.3968887382036
 31
0.0
  0
LINE
  5
100
330
FC
100
AcDbEntity
  8
_0-1_荳_闊_
  6
Continuous
 62
     7
100
AcDbLine
 10
-1274.526094812425
 20
-152.3968887382036
 30
0.0
 11
-1279.126094812425
 21
-160.3968887382036
 31
0.0
  0
LINE
  5
101
330
FC
100
AcDbEntity
  8
_0-1_荳_闊_
  6
Continuous
 62
     7
100
AcDbLine
 10
-1260.726094812424
 20
-160.3968887382036
 30
0.0
 11
-1265.326094812424
 21
-152.3968887382036
 31
0.0
  0
CIRCLE
  5
102
330
FC
100
AcDbEntity
  8
_0-1_荳_闊_
  6
Continuous
 62
     7
100
AcDbCircle
 10
-1269.926094812424
 20
-160.3968887382036
 30
0.0
 40
10.5
  0
LINE
  5
103
330
FC
100
AcDbEntity
  8
_0-1_荳_闊_
  6
Continuous
 62
     7
100
AcDbLine
 10
-1269.926094812424
 20
-174.8968887382036
 30
0.0
 11
-1269.926094812424
 21
-145.8968887382036
 31
0.0
  0
LINE
  5
104
330
FC
100
AcDbEntity
  8
_0-1_荳_闊_
  6
Continuous
 62
     7
100
AcDbLine
 10
-1279.126094812425
 20
-160.3968887382036
 30
0.0
 11
-1274.526094812425
 21
-168.3968887382036
 31
0.0
  0
LINE
  5
105
330
FC
100
AcDbEntity
  8
_0-1_荳_闊_
  6
Continuous
 62
     7
100
AcDbLine
 10
-1265.326094812424
 20
-168.3968887382036
 30
0.0
 11
-1260.726094812424
 21
-160.3968887382036
 31
0.0
  0
CIRCLE
  5
106
330
FC
100
AcDbEntity
  8
_0-1_荳_闊_
  6
Continuous
 62
     7
100
AcDbCircle
 10
-1269.926094812424
 20
-160.3968887382036
 30
0.0
 40
8.0
  0
ENDBLK
  5
107
330
FC
100
AcDbEntity
  8
0
100
AcDbBlockEnd
  0
BLOCK
  5
108
330
109
100
AcDbEntity
  8
0
100
AcDbBlockBegin
  2
-012-繧_繝_繝_繝__13-1
 70
     0
 10
0.0
 20
0.0
 30
0.0
  3
-012-繧_繝_繝_繝__13-1
  1

  0
LINE
  5
10A
330
109
100
AcDbEntity
  8
_0-1_荳_闊_
  6
Continuous
 62
     7
100
AcDbLine
 10
1305.343905187576
 20
-169.9265887382037
 30
0.0
 11
1303.210605187575
 21
-169.9265887382037
 31
0.0
  0
LINE
  5
10B
330
109
100
AcDbEntity
  8
_0-1_荳_闊_
  6
Continuous
 62
     7
100
AcDbLine
 10
1305.343905187576
 20
-153.1269887382039
 30
0.0
 11
1305.343905187576
 21
-169.9265887382037
 31
0.0
  0
LINE
  5
10C
330
109
100
AcDbEntity
  8
_0-1_荳_闊_
  6
Continuous
 62
     7
100
AcDbLine
 10
1303.210605187575
 20
-169.9265887382037
 30
0.0
 11
1303.210605187575
 21
-153.1269887382039
 31
0.0
  0
LINE
  5
10D
330
109
100
AcDbEntity
  8
_0-1_荳_闊_
  6
Continuous
 62
     7
100
AcDbLine
 10
1303.210605187575
 20
-153.1269887382039
 30
0.0
 11
1305.343905187576
 21
-153.1269887382039
 31
0.0
  0
ENDBLK
  5
10E
330
109
100
AcDbEntity
  8
0
100
AcDbBlockEnd
  0
BLOCK
  5
10F
330
110
100
AcDbEntity
  8
0
100
AcDbBlockBegin
  2
-013-繧_繝_繝_繝__14-1
 70
     0
 10
0.0
 20
0.0
 30
0.0
  3
-013-繧_繝_繝_繝__14-1
  1

  0
LINE
  5
111
330
110
100
AcDbEntity
  8
_0-1_荳_闊_
  6
Continuous
 62
     7
100
AcDbLine
 10
1293.610805187575
 20
-157.8602887382037
 30
0.0
 11
1296.277405187575
 21
-157.8602887382037
 31
0.0
  0
LINE
  5
112
330
110
100
AcDbEntity
  8
_0-1_荳_闊_
  6
Continuous
 62
     7
100
AcDbLine
 10
1292.277505187575
 20
-159.1935887382037
 30
0.0
 11
1293.610805187575
 21
-157.8602887382037
 31
0.0
  0
LINE
  5
113
330
110
100
AcDbEntity
  8
_0-1_荳_闊_
  6
Continuous
 62
     7
100
AcDbLine
 10
1292.677505187576
 20
-158.7935887382037
 30
0.0
 11
1296.277405187575
 21
-158.7935887382037
 31
0.0
  0
ARC
  5
114
330
110
100
AcDbEntity
  8
_0-1_荳_闊_
  6
Continuous
 62
     7
100
AcDbCircle
 10
1300.010605187575
 20
-167.7266887382035
 30
0.0
 40
3.199985445279323
100
AcDbArc
 50
325.0007923060926
 51
38.09970385366296
  0
ARC
  5
115
330
110
100
AcDbEntity
  8
_0-1_荳_闊_
  6
Continuous
 62
     7
100
AcDbCircle
 10
1299.477305187575
 20
-167.7266887382035
 30
0.0
 40
3.199997107811057
100
AcDbArc
 50
141.9002961463403
 51
216.3989938452139
  0
LINE
  5
116
330
110
100
AcDbEntity
  8
_0-1_荳_闊_
  6
Continuous
 62
     7
100
AcDbLine
 10
1293.610805187575
 20
-165.8600887382038
 30
0.0
 11
1296.277405187575
 21
-165.8600887382038
 31
0.0
  0
LINE
  5
117
330
110
100
AcDbEntity
  8
_0-1_荳_闊_
  6
Continuous
 62
     7
100
AcDbLine
 10
1292.277505187575
 20
-164.5267887382038
 30
0.0
 11
1293.610805187575
 21
-165.8600887382038
 31
0.0
  0
LINE
  5
118
330
110
100
AcDbEntity
  8
_0-1_荳_闊_
  6
Continuous
 62
     7
100
AcDbLine
 10
1292.677505187576
 20
-164.9267887382036
 30
0.0
 11
1296.277405187575
 21
-164.9267887382036
 31
0.0
  0
LINE
  5
119
330
110
100
AcDbEntity
  8
_0-1_荳_闊_
  6
Continuous
 62
     7
100
AcDbLine
 10
1296.277405187575
 20
-167.7266887382035
 30
0.0
 11
1296.277405187575
 21
-155.9935887382037
 31
0.0
  0
ARC
  5
11A
330
110
100
AcDbEntity
  8
_0-1_荳_闊_
  6
Continuous
 62
     7
100
AcDbCircle
 10
1291.610905187576
 20
-161.8601887382038
 30
0.0
 40
11.5997026242055
100
AcDbArc
 50
340.4002016224089
 51
19.60089471633358
  0
ARC
  5
11B
330
110
100
AcDbEntity
  8
_0-1_荳_闊_
  6
Continuous
 62
     7
100
AcDbCircle
 10
1307.877105187576
 20
-161.8601887382038
 30
0.0
 40
11.59976971538658
100
AcDbArc
 50
160.3992709835248
 51
199.599632687023
  0
LINE
  5
11C
330
110
100
AcDbEntity
  8
_0-1_荳_闊_
  6
Continuous
 62
     7
100
AcDbLine
 10
1293.610805187575
 20
-165.8600887382038
 30
0.0
 11
1293.610805187575
 21
-157.8602887382037
 31
0.0
  0
LINE
  5
11D
330
110
100
AcDbEntity
  8
_0-1_荳_闊_
  6
Continuous
 62
     7
100
AcDbLine
 10
1292.277505187575
 20
-164.5267887382038
 30
0.0
 11
1292.277505187575
 21
-159.1935887382037
 31
0.0
  0
LINE
  5
11E
330
110
100
AcDbEntity
  8
_0-1_荳_闊_
  6
Continuous
 62
     7
100
AcDbLine
 10
1296.944105187576
 20
-154.1269887382039
 30
0.0
 11
1302.543905187576
 21
-154.1269887382039
 31
0.0
  0
LINE
  5
11F
330
110
100
AcDbEntity
  8
_0-1_荳_闊_
  6
Continuous
 62
     7
100
AcDbLine
 10
1302.543905187576
 20
-157.9935887382037
 30
0.0
 11
1296.944105187576
 21
-157.9935887382037
 31
0.0
  0
LINE
  5
120
330
110
100
AcDbEntity
  8
_0-1_荳_闊_
  6
Continuous
 62
     7
100
AcDbLine
 10
1296.944105187576
 20
-165.7266887382036
 30
0.0
 11
1302.543905187576
 21
-165.7266887382036
 31
0.0
  0
LINE
  5
121
330
110
100
AcDbEntity
  8
_0-1_荳_闊_
  6
Continuous
 62
     7
100
AcDbLine
 10
1302.543905187576
 20
-169.5932887382037
 30
0.0
 11
1296.944105187576
 21
-169.5932887382037
 31
0.0
  0
ARC
  5
122
330
110
100
AcDbEntity
  8
_0-1_荳_闊_
  6
Continuous
 62
     7
100
AcDbCircle
 10
1300.010605187575
 20
-155.9935887382037
 30
0.0
 40
3.200075802226996
100
AcDbArc
 50
321.9014009113646
 51
34.9981807511428
  0
ARC
  5
123
330
110
100
AcDbEntity
  8
_0-1_荳_闊_
  6
Continuous
 62
     7
100
AcDbCircle
 10
1299.477305187575
 20
-155.9935887382037
 30
0.0
 40
3.199787757023791
100
AcDbArc
 50
143.6003223106463
 51
218.1019135467452
  0
ENDBLK
  5
124
330
110
100
AcDbEntity
  8
0
100
AcDbBlockEnd
  0
BLOCK
  5
125
330
126
100
AcDbEntity
  8
0
100
AcDbBlockBegin
  2
-014-繧_繝_繝_繝__15-1
 70
     0
 10
0.0
 20
0.0
 30
0.0
  3
-014-繧_繝_繝_繝__15-1
  1

  0
INSERT
  5
127
330
126
100
AcDbEntity
  8
_0-1_荳_闊_
100
AcDbBlockReference
  2
-012-繧_繝_繝_繝__13-1
 10
0.0
 20
0.0
 30
0.0
  0
ARC
  5
128
330
126
100
AcDbEntity
  8
_0-1_荳_闊_
  6
1
 62
     7
100
AcDbCircle
 10
1330.173805187575
 20
-167.7266887382035
 30
0.0
 40
3.199839722548659
100
AcDbArc
 50
321.8980864532604
 51
38.10191354673629
  0
LINE
  5
129
330
126
100
AcDbEntity
  8
_0-1_荳_闊_
  6
1
 62
     7
100
AcDbLine
 10
1325.773905187575
 20
-170.2599887382037
 30
0.0
 11
1327.907105187575
 21
-170.2599887382037
 31
0.0
  0
ARC
  5
12A
330
126
100
AcDbEntity
  8
_0-1_荳_闊_
  6
1
 62
     7
100
AcDbCircle
 10
1330.173805187575
 20
-155.9935887382037
 30
0.0
 40
3.199839722548659
100
AcDbArc
 50
321.8980864532604
 51
38.10191354673941
  0
LINE
  5
12B
330
126
100
AcDbEntity
  8
_0-1_荳_闊_
  6
1
 62
     7
100
AcDbLine
 10
1327.907105187575
 20
-153.4603887382038
 30
0.0
 11
1325.773905187575
 21
-153.4603887382038
 31
0.0
  0
LINE
  5
12C
330
126
100
AcDbEntity
  8
_0-1_荳_闊_
  6
1
 62
     7
100
AcDbLine
 10
1327.907105187575
 20
-169.5932887382037
 30
0.0
 11
1332.573705187575
 21
-169.5932887382037
 31
0.0
  0
LINE
  5
12D
330
126
100
AcDbEntity
  8
_0-1_荳_闊_
  6
1
 62
     7
100
AcDbLine
 10
1327.907105187575
 20
-165.7266887382036
 30
0.0
 11
1332.573705187575
 21
-165.7266887382036
 31
0.0
  0
LINE
  5
12E
330
126
100
AcDbEntity
  8
_0-1_荳_闊_
  6
1
 62
     7
100
AcDbLine
 10
1332.573705187575
 20
-154.1269887382039
 30
0.0
 11
1327.907105187575
 21
-154.1269887382039
 31
0.0
  0
LINE
  5
12F
330
126
100
AcDbEntity
  8
_0-1_荳_闊_
  6
1
 62
     7
100
AcDbLine
 10
1327.907105187575
 20
-157.9935887382037
 30
0.0
 11
1332.573705187575
 21
-157.9935887382037
 31
0.0
  0
LINE
  5
130
330
126
100
AcDbEntity
  8
_0-1_荳_闊_
  6
1
 62
     7
100
AcDbLine
 10
1325.773905187575
 20
-153.4603887382038
 30
0.0
 11
1325.773905187575
 21
-170.2599887382037
 31
0.0
  0
LINE
  5
131
330
126
100
AcDbEntity
  8
_0-1_荳_闊_
  6
1
 62
     7
100
AcDbLine
 10
1327.907105187575
 20
-170.2599887382037
 30
0.0
 11
1327.907105187575
 21
-153.4603887382038
 31
0.0
  0
LINE
  5
132
330
126
100
AcDbEntity
  8
_0-1_荳_闊_
  6
1
 62
     7
100
AcDbLine
 10
1327.907105187575
 20
-154.1269887382039
 30
0.0
 11
1327.907105187575
 21
-169.5932887382037
 31
0.0
  0
LINE
  5
133
330
126
100
AcDbEntity
  8
_0-1_荳_闊_
  6
1
 62
     7
100
AcDbLine
 10
1333.240305187575
 20
-156.1269887382039
 30
0.0
 11
1333.240305187575
 21
-167.5933887382037
 31
0.0
  0
ARC
  5
134
330
126
100
AcDbEntity
  8
_0-1_荳_闊_
  6
1
 62
     7
100
AcDbCircle
 10
1321.640605187576
 20
-161.8601887382038
 30
0.0
 40
11.5997026242055
100
AcDbArc
 50
340.4002016224089
 51
19.6004293949382
  0
LINE
  5
135
330
126
100
AcDbEntity
  8
_0-4__0-2_蟇_豕__0___50__0_0___71_______0___42__1_0____3__txt____4__bigfont_shx____0__ENDTAB____0__EOF__
  6
Continuous
 62
     7
100
AcDbLine
 10
1303.210605187575
 20
-157.8602887382037
 30
0.0
 11
1325.791705187576
 21
-157.8602887382037
 31
0.0
  0
LINE
  5
136
330
126
100
AcDbEntity
  8
_0-2_蟇_豕__
  6
Continuous
 62
     7
100
AcDbLine
 10
1303.210605187575
 20
-165.8600887382038
 30
0.0
 11
1325.792605187576
 21
-165.8600887382038
 31
0.0
  0
LINE
  5
137
330
126
100
AcDbEntity
  8
_0-5__0-2_蟇_豕___4-1
  6
Continuous
 62
     7
100
AcDbLine
 10
1303.210605187575
 20
-158.6601887382037
 30
0.0
 11
1325.873905187575
 21
-158.6601887382037
 31
0.0
  0
LINE
  5
138
330
126
100
AcDbEntity
  8
_0-6__0-2_蟇_豕___13-1
  6
Continuous
 62
     7
100
AcDbLine
 10
1303.210605187575
 20
-165.0600887382038
 30
0.0
 11
1325.792505187575
 21
-165.0600887382038
 31
0.0
  0
INSERT
  5
139
330
126
100
AcDbEntity
  8
_0-1_荳_闊_
100
AcDbBlockReference
  2
-013-繧_繝_繝_繝__14-1
 10
0.0
 20
0.0
 30
0.0
  0
ENDBLK
  5
13A
330
126
100
AcDbEntity
  8
0
100
AcDbBlockEnd
  0
BLOCK
  5
13B
330
13C
100
AcDbEntity
  8
0
100
AcDbBlockBegin
  2
-015-繧_繝_繝_繝__16-1
 70
     0
 10
0.0
 20
0.0
 30
0.0
  3
-015-繧_繝_繝_繝__16-1
  1

  0
LINE
  5
13D
330
13C
100
AcDbEntity
  8
_0-1_荳_闊_
  6
1
 62
     7
100
AcDbLine
 10
1290.173905187576
 20
-161.8601887382038
 30
0.0
 11
1337.240205187575
 21
-161.8601887382038
 31
0.0
  0
INSERT
  5
13E
330
13C
100
AcDbEntity
  8
_0-1_荳_闊_
100
AcDbBlockReference
  2
-014-繧_繝_繝_繝__15-1
 10
0.0
 20
0.0
 30
0.0
  0
ENDBLK
  5
13F
330
13C
100
AcDbEntity
  8
0
100
AcDbBlockEnd
  0
BLOCK
  5
140
330
141
100
AcDbEntity
  8
0
100
AcDbBlockBegin
  2
-016-繧_繝_繝_繝__17-1
 70
     0
 10
0.0
 20
0.0
 30
0.0
  3
-016-繧_繝_繝_繝__17-1
  1

  0
LINE
  5
142
330
141
100
AcDbEntity
  8
_0-1_荳_闊_
  6
Continuous
 62
     7
100
AcDbLine
 10
1305.343905187576
 20
-128.4157887382037
 30
0.0
 11
1303.210605187575
 21
-128.4157887382037
 31
0.0
  0
LINE
  5
143
330
141
100
AcDbEntity
  8
_0-1_荳_闊_
  6
Continuous
 62
     7
100
AcDbLine
 10
1305.343905187576
 20
-111.6161887382038
 30
0.0
 11
1305.343905187576
 21
-128.4157887382037
 31
0.0
  0
LINE
  5
144
330
141
100
AcDbEntity
  8
_0-1_荳_闊_
  6
Continuous
 62
     7
100
AcDbLine
 10
1303.210605187575
 20
-128.4157887382037
 30
0.0
 11
1303.210605187575
 21
-111.6161887382038
 31
0.0
  0
LINE
  5
145
330
141
100
AcDbEntity
  8
_0-1_荳_闊_
  6
Continuous
 62
     7
100
AcDbLine
 10
1303.210605187575
 20
-111.6161887382038
 30
0.0
 11
1305.343905187576
 21
-111.6161887382038
 31
0.0
  0
ENDBLK
  5
146
330
141
100
AcDbEntity
  8
0
100
AcDbBlockEnd
  0
BLOCK
  5
147
330
148
100
AcDbEntity
  8
0
100
AcDbBlockBegin
  2
-017-繧_繝_繝_繝__18-1
 70
     0
 10
0.0
 20
0.0
 30
0.0
  3
-017-繧_繝_繝_繝__18-1
  1

  0
LINE
  5
149
330
148
100
AcDbEntity
  8
_0-1_荳_闊_
  6
Continuous
 62
     7
100
AcDbLine
 10
1293.610805187575
 20
-116.3494887382037
 30
0.0
 11
1296.277405187575
 21
-116.3494887382037
 31
0.0
  0
LINE
  5
14A
330
148
100
AcDbEntity
  8
_0-1_荳_闊_
  6
Continuous
 62
     7
100
AcDbLine
 10
1292.277505187575
 20
-117.6827887382037
 30
0.0
 11
1293.610805187575
 21
-116.3494887382037
 31
0.0
  0
LINE
  5
14B
330
148
100
AcDbEntity
  8
_0-1_荳_闊_
  6
Continuous
 62
     7
100
AcDbLine
 10
1292.677505187576
 20
-117.2827887382036
 30
0.0
 11
1296.277405187575
 21
-117.2827887382036
 31
0.0
  0
ARC
  5
14C
330
148
100
AcDbEntity
  8
_0-1_荳_闊_
  6
Continuous
 62
     7
100
AcDbCircle
 10
1300.010605187575
 20
-126.2158887382039
 30
0.0
 40
3.199985445279192
100
AcDbArc
 50
325.0007923060959
 51
38.0997038536662
  0
ARC
  5
14D
330
148
100
AcDbEntity
  8
_0-1_荳_闊_
  6
Continuous
 62
     7
100
AcDbCircle
 10
1299.477305187575
 20
-126.2158887382039
 30
0.0
 40
3.199997107811197
100
AcDbArc
 50
141.9002961463371
 51
216.3989938452107
  0
LINE
  5
14E
330
148
100
AcDbEntity
  8
_0-1_荳_闊_
  6
Continuous
 62
     7
100
AcDbLine
 10
1293.610805187575
 20
-124.3492887382038
 30
0.0
 11
1296.277405187575
 21
-124.3492887382038
 31
0.0
  0
LINE
  5
14F
330
148
100
AcDbEntity
  8
_0-1_荳_闊_
  6
Continuous
 62
     7
100
AcDbLine
 10
1292.277505187575
 20
-123.0159887382038
 30
0.0
 11
1293.610805187575
 21
-124.3492887382038
 31
0.0
  0
LINE
  5
150
330
148
100
AcDbEntity
  8
_0-1_荳_闊_
  6
Continuous
 62
     7
100
AcDbLine
 10
1292.677505187576
 20
-123.4159887382037
 30
0.0
 11
1296.277405187575
 21
-123.4159887382037
 31
0.0
  0
LINE
  5
151
330
148
100
AcDbEntity
  8
_0-1_荳_闊_
  6
Continuous
 62
     7
100
AcDbLine
 10
1296.277405187575
 20
-126.2158887382039
 30
0.0
 11
1296.277405187575
 21
-114.4827887382037
 31
0.0
  0
ARC
  5
152
330
148
100
AcDbEntity
  8
_0-1_荳_闊_
  6
Continuous
 62
     7
100
AcDbCircle
 10
1291.610905187576
 20
-120.3493887382037
 30
0.0
 40
11.59970262420551
100
AcDbArc
 50
340.4002016224089
 51
19.60089471633358
  0
ARC
  5
153
330
148
100
AcDbEntity
  8
_0-1_荳_闊_
  6
Continuous
 62
     7
100
AcDbCircle
 10
1307.877105187576
 20
-120.3493887382037
 30
0.0
 40
11.59976971538658
100
AcDbArc
 50
160.3992709835248
 51
199.5996326870232
  0
LINE
  5
154
330
148
100
AcDbEntity
  8
_0-1_荳_闊_
  6
Continuous
 62
     7
100
AcDbLine
 10
1293.610805187575
 20
-124.3492887382038
 30
0.0
 11
1293.610805187575
 21
-116.3494887382037
 31
0.0
  0
LINE
  5
155
330
148
100
AcDbEntity
  8
_0-1_荳_闊_
  6
Continuous
 62
     7
100
AcDbLine
 10
1292.277505187575
 20
-123.0159887382038
 30
0.0
 11
1292.277505187575
 21
-117.6827887382037
 31
0.0
  0
LINE
  5
156
330
148
100
AcDbEntity
  8
_0-1_荳_闊_
  6
Continuous
 62
     7
100
AcDbLine
 10
1296.944105187576
 20
-112.6161887382038
 30
0.0
 11
1302.543905187576
 21
-112.6161887382038
 31
0.0
  0
LINE
  5
157
330
148
100
AcDbEntity
  8
_0-1_荳_闊_
  6
Continuous
 62
     7
100
AcDbLine
 10
1302.543905187576
 20
-116.4827887382037
 30
0.0
 11
1296.944105187576
 21
-116.4827887382037
 31
0.0
  0
LINE
  5
158
330
148
100
AcDbEntity
  8
_0-1_荳_闊_
  6
Continuous
 62
     7
100
AcDbLine
 10
1296.944105187576
 20
-124.2158887382039
 30
0.0
 11
1302.543905187576
 21
-124.2158887382039
 31
0.0
  0
LINE
  5
159
330
148
100
AcDbEntity
  8
_0-1_荳_闊_
  6
Continuous
 62
     7
100
AcDbLine
 10
1302.543905187576
 20
-128.0824887382037
 30
0.0
 11
1296.944105187576
 21
-128.0824887382037
 31
0.0
  0
ARC
  5
15A
330
148
100
AcDbEntity
  8
_0-1_荳_闊_
  6
Continuous
 62
     7
100
AcDbCircle
 10
1300.010605187575
 20
-114.4827887382037
 30
0.0
 40
3.200075802226996
100
AcDbArc
 50
321.9014009113646
 51
34.9981807511428
  0
ARC
  5
15B
330
148
100
AcDbEntity
  8
_0-1_荳_闊_
  6
Continuous
 62
     7
100
AcDbCircle
 10
1299.477305187575
 20
-114.4827887382037
 30
0.0
 40
3.199787757023791
100
AcDbArc
 50
143.6003223106463
 51
218.1019135467452
  0
ENDBLK
  5
15C
330
148
100
AcDbEntity
  8
0
100
AcDbBlockEnd
  0
BLOCK
  5
15D
330
15E
100
AcDbEntity
  8
0
100
AcDbBlockBegin
  2
-018-繧_繝_繝_繝__19-1
 70
     0
 10
0.0
 20
0.0
 30
0.0
  3
-018-繧_繝_繝_繝__19-1
  1

  0
INSERT
  5
15F
330
15E
100
AcDbEntity
  8
_0-1_荳_闊_
100
AcDbBlockReference
  2
-016-繧_繝_繝_繝__17-1
 10
0.0
 20
0.0
 30
0.0
  0
ARC
  5
160
330
15E
100
AcDbEntity
  8
_0-1_荳_闊_
  6
1
 62
     7
100
AcDbCircle
 10
1330.173805187575
 20
-126.2158887382039
 30
0.0
 40
3.199839722548519
100
AcDbArc
 50
321.8980864532637
 51
38.10191354673948
  0
LINE
  5
161
330
15E
100
AcDbEntity
  8
_0-1_荳_闊_
  6
1
 62
     7
100
AcDbLine
 10
1325.773905187575
 20
-128.7491887382037
 30
0.0
 11
1327.907105187575
 21
-128.7491887382037
 31
0.0
  0
ARC
  5
162
330
15E
100
AcDbEntity
  8
_0-1_荳_闊_
  6
1
 62
     7
100
AcDbCircle
 10
1330.173805187575
 20
-114.4827887382037
 30
0.0
 40
3.199839722548659
100
AcDbArc
 50
321.8980864532604
 51
38.10191354673941
  0
LINE
  5
163
330
15E
100
AcDbEntity
  8
_0-1_荳_闊_
  6
1
 62
     7
100
AcDbLine
 10
1327.907105187575
 20
-111.9495887382038
 30
0.0
 11
1325.773905187575
 21
-111.9495887382038
 31
0.0
  0
LINE
  5
164
330
15E
100
AcDbEntity
  8
_0-1_荳_闊_
  6
1
 62
     7
100
AcDbLine
 10
1327.907105187575
 20
-128.0824887382037
 30
0.0
 11
1332.573705187575
 21
-128.0824887382037
 31
0.0
  0
LINE
  5
165
330
15E
100
AcDbEntity
  8
_0-1_荳_闊_
  6
1
 62
     7
100
AcDbLine
 10
1327.907105187575
 20
-124.2158887382039
 30
0.0
 11
1332.573705187575
 21
-124.2158887382039
 31
0.0
  0
LINE
  5
166
330
15E
100
AcDbEntity
  8
_0-1_荳_闊_
  6
1
 62
     7
100
AcDbLine
 10
1332.573705187575
 20
-112.6161887382038
 30
0.0
 11
1327.907105187575
 21
-112.6161887382038
 31
0.0
  0
LINE
  5
167
330
15E
100
AcDbEntity
  8
_0-1_荳_闊_
  6
1
 62
     7
100
AcDbLine
 10
1327.907105187575
 20
-116.4827887382037
 30
0.0
 11
1332.573705187575
 21
-116.4827887382037
 31
0.0
  0
LINE
  5
168
330
15E
100
AcDbEntity
  8
_0-1_荳_闊_
  6
1
 62
     7
100
AcDbLine
 10
1325.773905187575
 20
-111.9495887382038
 30
0.0
 11
1325.773905187575
 21
-128.7491887382037
 31
0.0
  0
LINE
  5
169
330
15E
100
AcDbEntity
  8
_0-1_荳_闊_
  6
1
 62
     7
100
AcDbLine
 10
1327.907105187575
 20
-128.7491887382037
 30
0.0
 11
1327.907105187575
 21
-111.9495887382038
 31
0.0
  0
LINE
  5
16A
330
15E
100
AcDbEntity
  8
_0-1_荳_闊_
  6
1
 62
     7
100
AcDbLine
 10
1327.907105187575
 20
-112.6161887382038
 30
0.0
 11
1327.907105187575
 21
-128.0824887382037
 31
0.0
  0
LINE
  5
16B
330
15E
100
AcDbEntity
  8
_0-1_荳_闊_
  6
1
 62
     7
100
AcDbLine
 10
1333.240305187575
 20
-114.6161887382038
 30
0.0
 11
1333.240305187575
 21
-126.0825887382037
 31
0.0
  0
ARC
  5
16C
330
15E
100
AcDbEntity
  8
_0-1_荳_闊_
  6
1
 62
     7
100
AcDbCircle
 10
1321.640605187576
 20
-120.3493887382037
 30
0.0
 40
11.59970262420551
100
AcDbArc
 50
340.4002016224089
 51
19.60042939493831
  0
LINE
  5
16D
330
15E
100
AcDbEntity
  8
_0-7__0-2_蟇_豕___16-1
  6
Continuous
 62
     7
100
AcDbLine
 10
1303.210605187575
 20
-116.3494887382037
 30
0.0
 11
1325.791705187576
 21
-116.3494887382037
 31
0.0
  0
LINE
  5
16E
330
15E
100
AcDbEntity
  8
_0-8__0-2_蟇_豕__3__100__AcDbSymbolTable___70_______1____0__STYLE____5__10__100__AcDbSymbolTableRecord_
  6
Continuous
 62
     7
100
AcDbLine
 10
1303.210605187575
 20
-124.3492887382038
 30
0.0
 11
1325.792605187576
 21
-124.3492887382038
 31
0.0
  0
LINE
  5
16F
330
15E
100
AcDbEntity
  8
_0-9__0-2_蟇_豕___17-1
  6
Continuous
 62
     7
100
AcDbLine
 10
1303.210605187575
 20
-117.1493887382037
 30
0.0
 11
1325.873905187575
 21
-117.1493887382037
 31
0.0
  0
LINE
  5
170
330
15E
100
AcDbEntity
  8
_0-7__0-2_蟇_豕___16-1
  6
Continuous
 62
     7
100
AcDbLine
 10
1303.210605187575
 20
-123.5492887382038
 30
0.0
 11
1325.792505187575
 21
-123.5492887382038
 31
0.0
  0
INSERT
  5
171
330
15E
100
AcDbEntity
  8
_0-1_荳_闊_
100
AcDbBlockReference
  2
-017-繧_繝_繝_繝__18-1
 10
0.0
 20
0.0
 30
0.0
  0
ENDBLK
  5
172
330
15E
100
AcDbEntity
  8
0
100
AcDbBlockEnd
  0
BLOCK
  5
173
330
174
100
AcDbEntity
  8
0
100
AcDbBlockBegin
  2
-019-繧_繝_繝_繝__20-1
 70
     0
 10
0.0
 20
0.0
 30
0.0
  3
-019-繧_繝_繝_繝__20-1
  1

  0
LINE
  5
175
330
174
100
AcDbEntity
  8
_0-1_荳_闊_
  6
1
 62
     7
100
AcDbLine
 10
1290.173905187576
 20
-120.3493887382037
 30
0.0
 11
1337.240205187575
 21
-120.3493887382037
 31
0.0
  0
INSERT
  5
176
330
174
100
AcDbEntity
  8
_0-1_荳_闊_
100
AcDbBlockReference
  2
-018-繧_繝_繝_繝__19-1
 10
0.0
 20
0.0
 30
0.0
  0
ENDBLK
  5
177
330
174
100
AcDbEntity
  8
0
100
AcDbBlockEnd
  0
BLOCK
  5
178
330
179
100
AcDbEntity
  8
0
100
AcDbBlockBegin
  2
-020-VW_EMPTYBALL
 70
     0
 10
0.0
 20
0.0
 30
0.0
  3
-020-VW_EMPTYBALL
  1

  0
CIRCLE
  5
17A
330
179
100
AcDbEntity
  8
_0-a__0-0_0
  6
Continuous
 62
     7
100
AcDbCircle
 10
0.4999999999999998
 20
0.4999999999999998
 30
0.0
 40
0.4999999999999998
  0
ENDBLK
  5
17B
330
179
100
AcDbEntity
  8
0
100
AcDbBlockEnd
  0
BLOCK
  5
17C
330
17D
100
AcDbEntity
  8
0
100
AcDbBlockBegin
  2
-021-_D21
 70
     0
 10
0.0
 20
0.0
 30
0.0
  3
-021-_D21
  1

  0
LINE
  5
17E
330
17D
100
AcDbEntity
  8
_0-8__0-2_蟇_豕__3__100__AcDbSymbolTable___70_______1____0__STYLE____5__10__100__AcDbSymbolTableRecord_
  6
Continuous
 62
     7
100
AcDbLine
 10
1262.83799739441
 20
-45.38273245067275
 30
0.0
 11
1262.83799739441
 21
46.99999999999999
 31
0.0
  0
LINE
  5
17F
330
17D
100
AcDbEntity
  8
_0-2_蟇_豕__
  6
Continuous
 62
     7
100
AcDbLine
 10
875.83799739441
 20
-45.38273245067275
 30
0.0
 11
875.83799739441
 21
46.99999999999999
 31
0.0
  0
LINE
  5
180
330
17D
100
AcDbEntity
  8
_0-b__0-2_蟇_豕___18-1
  6
Continuous
 62
     7
100
AcDbLine
 10
1256.838363605347
 20
36.99999999999999
 30
0.0
 11
881.8376311834725
 21
36.99999999999999
 31
0.0
  0
INSERT
  5
181
330
17D
100
AcDbEntity
  8
_0-8__0-2_蟇_豕__3__100__AcDbSymbolTable___70_______1____0__STYLE____5__10__100__AcDbSymbolTableRecord_
100
AcDbBlockReference
  2
-020-VW_EMPTYBALL
 10
1262.83799739441
 20
36.99999999999999
 30
0.0
 41
5.9996337890625
 42
5.9996337890625
  0
INSERT
  5
182
330
17D
100
AcDbEntity
  8
_0-8__0-2_蟇_豕__3__100__AcDbSymbolTable___70_______1____0__STYLE____5__10__100__AcDbSymbolTableRecord_
100
AcDbBlockReference
  2
-020-VW_EMPTYBALL
 10
875.83799739441
 20
36.99999999999999
 30
0.0
 41
5.9996337890625
 42
5.9996337890625
 50
180.0
  0
TEXT
  5
183
330
17D
100
AcDbEntity
  8
_0-4__0-2_蟇_豕__0___50__0_0___71_______0___42__1_0____3__txt____4__bigfont_shx____0__ENDTAB____0__EOF__
 62
     7
100
AcDbText
 10
1051.060043292847
 20
41.99999999999999
 30
0.0
 40
24.37060546875
  1
387
100
AcDbText
  0
POINT
  5
184
330
17D
100
AcDbEntity
  8
_0-c__0-3_Defpoints
 62
     7
100
AcDbPoint
 10
1262.83799739441
 20
-55.38273245067275
 30
0.0
  0
POINT
  5
185
330
17D
100
AcDbEntity
  8
_0-c__0-3_Defpoints
 62
     7
100
AcDbPoint
 10
875.83799739441
 20
-55.38273245067275
 30
0.0
  0
POINT
  5
186
330
17D
100
AcDbEntity
  8
_0-c__0-3_Defpoints
 62
     7
100
AcDbPoint
 10
875.83799739441
 20
36.99999999999999
 30
0.0
  0
ENDBLK
  5
187
330
17D
100
AcDbEntity
  8
0
100
AcDbBlockEnd
  0
BLOCK
  5
188
330
189
100
AcDbEntity
  8
0
100
AcDbBlockBegin
  2
-022-_D22
 70
     0
 10
0.0
 20
0.0
 30
0.0
  3
-022-_D22
  1

  0
LINE
  5
18A
330
189
100
AcDbEntity
  8
_0-6__0-2_蟇_豕___13-1
  6
Continuous
 62
     7
100
AcDbLine
 10
1269.83799739441
 20
-48.91466141935253
 30
0.0
 11
1269.83799739441
 21
46.99999999999999
 31
0.0
  0
LINE
  5
18B
330
189
100
AcDbEntity
  8
_0-d__0-2_蟇_豕__ts
  6
Continuous
 62
     7
100
AcDbLine
 10
1262.83799739441
 20
-45.38273245067275
 30
0.0
 11
1262.83799739441
 21
46.99999999999999
 31
0.0
  0
LINE
  5
18C
330
189
100
AcDbEntity
  8
_0-d__0-2_蟇_豕__ts
  6
Continuous
 62
     7
100
AcDbLine
 10
1269.83799739441
 20
36.99999999999999
 30
0.0
 11
1262.83799739441
 21
36.99999999999999
 31
0.0
  0
LINE
  5
18D
330
189
100
AcDbEntity
  8
_0-d__0-2_蟇_豕__ts
  6
Continuous
 62
     7
100
AcDbLine
 10
1275.837631183472
 20
36.99999999999999
 30
0.0
 11
1281.837264972535
 21
36.99999999999999
 31
0.0
  0
LINE
  5
18E
330
189
100
AcDbEntity
  8
_0-5__0-2_蟇_豕___4-1
  6
Continuous
 62
     7
100
AcDbLine
 10
1256.838363605347
 20
36.99999999999999
 30
0.0
 11
1250.838729816285
 21
36.99999999999999
 31
0.0
  0
INSERT
  5
18F
330
189
100
AcDbEntity
  8
_0-2_蟇_豕__
100
AcDbBlockReference
  2
-020-VW_EMPTYBALL
 10
1269.83799739441
 20
36.99999999999999
 30
0.0
 41
5.9996337890625
 42
5.9996337890625
 50
180.0
  0
INSERT
  5
190
330
189
100
AcDbEntity
  8
_0-b__0-2_蟇_豕___18-1
100
AcDbBlockReference
  2
-020-VW_EMPTYBALL
 10
1262.83799739441
 20
36.99999999999999
 30
0.0
 41
5.9996337890625
 42
5.9996337890625
  0
TEXT
  5
191
330
189
100
AcDbEntity
  8
_0-2_蟇_豕__
 62
     7
100
AcDbText
 10
1260.245346027222
 20
41.99999999999999
 30
0.0
 40
24.37060546875
  1
7
100
AcDbText
  0
POINT
  5
192
330
189
100
AcDbEntity
  8
_0-c__0-3_Defpoints
 62
     7
100
AcDbPoint
 10
1269.83799739441
 20
-58.91466141935253
 30
0.0
  0
POINT
  5
193
330
189
100
AcDbEntity
  8
_0-c__0-3_Defpoints
 62
     7
100
AcDbPoint
 10
1262.83799739441
 20
-55.38273245067275
 30
0.0
  0
POINT
  5
194
330
189
100
AcDbEntity
  8
_0-c__0-3_Defpoints
 62
     7
100
AcDbPoint
 10
1262.83799739441
 20
36.99999999999999
 30
0.0
  0
ENDBLK
  5
195
330
189
100
AcDbEntity
  8
0
100
AcDbBlockEnd
  0
BLOCK
  5
196
330
197
100
AcDbEntity
  8
0
100
AcDbBlockBegin
  2
-023-_D23
 70
     0
 10
0.0
 20
0.0
 30
0.0
  3
-023-_D23
  1

  0
LINE
  5
198
330
197
100
AcDbEntity
  8
_0-d__0-2_蟇_豕__ts
  6
Continuous
 62
     7
100
AcDbLine
 10
1369.83799739441
 20
-48.91466141935253
 30
0.0
 11
1369.83799739441
 21
46.99999999999999
 31
0.0
  0
LINE
  5
199
330
197
100
AcDbEntity
  8
_0-d__0-2_蟇_豕__ts
  6
Continuous
 62
     7
100
AcDbLine
 10
1269.83799739441
 20
-48.91466141935253
 30
0.0
 11
1269.83799739441
 21
46.99999999999999
 31
0.0
  0
LINE
  5
19A
330
197
100
AcDbEntity
  8
_0-d__0-2_蟇_豕__ts
  6
Continuous
 62
     7
100
AcDbLine
 10
1363.838363605347
 20
36.99999999999999
 30
0.0
 11
1275.837631183472
 21
36.99999999999999
 31
0.0
  0
INSERT
  5
19B
330
197
100
AcDbEntity
  8
_0-d__0-2_蟇_豕__ts
100
AcDbBlockReference
  2
-020-VW_EMPTYBALL
 10
1369.83799739441
 20
36.99999999999999
 30
0.0
 41
5.9996337890625
 42
5.9996337890625
  0
INSERT
  5
19C
330
197
100
AcDbEntity
  8
_0-d__0-2_蟇_豕__ts
100
AcDbBlockReference
  2
-020-VW_EMPTYBALL
 10
1269.83799739441
 20
36.99999999999999
 30
0.0
 41
5.9996337890625
 42
5.9996337890625
 50
180.0
  0
TEXT
  5
19D
330
197
100
AcDbEntity
  8
_0-d__0-2_蟇_豕__ts
 62
     7
100
AcDbText
 10
1301.560043292847
 20
41.99999999999999
 30
0.0
 40
24.37060546875
  1
100
100
AcDbText
  0
POINT
  5
19E
330
197
100
AcDbEntity
  8
_0-c__0-3_Defpoints
 62
     7
100
AcDbPoint
 10
1369.83799739441
 20
-58.91466141935253
 30
0.0
  0
POINT
  5
19F
330
197
100
AcDbEntity
  8
_0-c__0-3_Defpoints
 62
     7
100
AcDbPoint
 10
1269.83799739441
 20
-58.91466141935253
 30
0.0
  0
POINT
  5
1A0
330
197
100
AcDbEntity
  8
_0-c__0-3_Defpoints
 62
     7
100
AcDbPoint
 10
1269.83799739441
 20
36.99999999999999
 30
0.0
  0
ENDBLK
  5
1A1
330
197
100
AcDbEntity
  8
0
100
AcDbBlockEnd
  0
BLOCK
  5
1A2
330
1A3
100
AcDbEntity
  8
0
100
AcDbBlockBegin
  2
-024-_D24
 70
     0
 10
0.0
 20
0.0
 30
0.0
  3
-024-_D24
  1

  0
LINE
  5
1A4
330
1A3
100
AcDbEntity
  8
_0-d__0-2_蟇_豕__ts
  6
Continuous
 62
     7
100
AcDbLine
 10
1369.83799739441
 20
-38.91466141935253
 30
0.0
 11
1369.83799739441
 21
125.0
 31
0.0
  0
LINE
  5
1A5
330
1A3
100
AcDbEntity
  8
_0-d__0-2_蟇_豕__ts
  6
Continuous
 62
     7
100
AcDbLine
 10
875.83799739441
 20
-45.38273245067275
 30
0.0
 11
875.83799739441
 21
125.0
 31
0.0
  0
LINE
  5
1A6
330
1A3
100
AcDbEntity
  8
_0-d__0-2_蟇_豕__ts
  6
Continuous
 62
     7
100
AcDbLine
 10
1363.838363605347
 20
115.0
 30
0.0
 11
881.8376311834725
 21
115.0
 31
0.0
  0
INSERT
  5
1A7
330
1A3
100
AcDbEntity
  8
_0-4__0-2_蟇_豕__0___50__0_0___71_______0___42__1_0____3__txt____4__bigfont_shx____0__ENDTAB____0__EOF__
100
AcDbBlockReference
  2
-020-VW_EMPTYBALL
 10
1369.83799739441
 20
115.0
 30
0.0
 41
5.9996337890625
 42
5.9996337890625
  0
INSERT
  5
1A8
330
1A3
100
AcDbEntity
  8
_0-d__0-2_蟇_豕__ts
100
AcDbBlockReference
  2
-020-VW_EMPTYBALL
 10
875.83799739441
 20
115.0
 30
0.0
 41
5.9996337890625
 42
5.9996337890625
 50
180.0
  0
TEXT
  5
1A9
330
1A3
100
AcDbEntity
  8
_0-d__0-2_蟇_豕__ts
 62
     7
100
AcDbText
 10
1104.560043292847
 20
120.0
 30
0.0
 40
24.37060546875
  1
494
100
AcDbText
  0
POINT
  5
1AA
330
1A3
100
AcDbEntity
  8
_0-c__0-3_Defpoints
 62
     7
100
AcDbPoint
 10
1369.83799739441
 20
-48.91466141935253
 30
0.0
  0
POINT
  5
1AB
330
1A3
100
AcDbEntity
  8
_0-c__0-3_Defpoints
 62
     7
100
AcDbPoint
 10
875.83799739441
 20
-55.38273245067275
 30
0.0
  0
POINT
  5
1AC
330
1A3
100
AcDbEntity
  8
_0-c__0-3_Defpoints
 62
     7
100
AcDbPoint
 10
875.83799739441
 20
115.0
 30
0.0
  0
ENDBLK
  5
1AD
330
1A3
100
AcDbEntity
  8
0
100
AcDbBlockEnd
  0
BLOCK
  5
1AE
330
1AF
100
AcDbEntity
  8
0
100
AcDbBlockBegin
  2
-025-繧_繝_繝_繝__21-1
 70
     0
 10
0.0
 20
0.0
 30
0.0
  3
-025-繧_繝_繝_繝__21-1
  1

  0
LINE
  5
1B0
330
1AF
100
AcDbEntity
  8
_0-1_荳_闊_
  6
Continuous
 62
     7
100
AcDbLine
 10
125.2739051875757
 20
-604.4126858039352
 30
0.0
 11
135.2739051875757
 21
-604.4126858039352
 31
0.0
  0
LINE
  5
1B1
330
1AF
100
AcDbEntity
  8
_0-1_荳_闊_
  6
Continuous
 62
     7
100
AcDbLine
 10
135.2739051875757
 20
-604.4126858039352
 30
0.0
 11
135.2739051875757
 21
-664.4126858039352
 31
0.0
  0
LINE
  5
1B2
330
1AF
100
AcDbEntity
  8
_0-1_荳_闊_
  6
Continuous
 62
     7
100
AcDbLine
 10
135.2739051875757
 20
-664.4126858039352
 30
0.0
 11
125.2739051875757
 21
-664.4126858039352
 31
0.0
  0
LINE
  5
1B3
330
1AF
100
AcDbEntity
  8
_0-1_荳_闊_
  6
Continuous
 62
     7
100
AcDbLine
 10
125.2739051875757
 20
-664.4126858039352
 30
0.0
 11
125.2739051875757
 21
-604.4126858039352
 31
0.0
  0
LINE
  5
1B4
330
1AF
100
AcDbEntity
  8
_0-1_荳_闊_
  6
Continuous
 62
     7
100
AcDbLine
 10
121.2739051875757
 20
-611.6804635817129
 30
0.0
 11
139.2739051875757
 21
-611.6804635817129
 31
0.0
  0
LINE
  5
1B5
330
1AF
100
AcDbEntity
  8
_0-1_荳_闊_
  6
Continuous
 62
     7
100
AcDbLine
 10
139.2739051875757
 20
-611.6804635817129
 30
0.0
 11
139.2739051875757
 21
-619.6804635817129
 31
0.0
  0
LINE
  5
1B6
330
1AF
100
AcDbEntity
  8
_0-1_荳_闊_
  6
Continuous
 62
     7
100
AcDbLine
 10
139.2739051875757
 20
-619.6804635817129
 30
0.0
 11
121.2739051875757
 21
-619.6804635817129
 31
0.0
  0
LINE
  5
1B7
330
1AF
100
AcDbEntity
  8
_0-1_荳_闊_
  6
Continuous
 62
     7
100
AcDbLine
 10
121.2739051875757
 20
-619.6804635817129
 30
0.0
 11
121.2739051875757
 21
-611.6804635817129
 31
0.0
  0
ENDBLK
  5
1B8
330
1AF
100
AcDbEntity
  8
0
100
AcDbBlockEnd
  0
BLOCK
  5
1B9
330
1BA
100
AcDbEntity
  8
0
100
AcDbBlockBegin
  2
-026-繧_繝_繝_繝__22-1
 70
     0
 10
0.0
 20
0.0
 30
0.0
  3
-026-繧_繝_繝_繝__22-1
  1

  0
LINE
  5
1BB
330
1BA
100
AcDbEntity
  8
_0-1_荳_闊_
  6
Continuous
 62
     7
100
AcDbLine
 10
1423.740441742953
 20
-604.039910960426
 30
0.0
 11
1433.740441742953
 21
-604.039910960426
 31
0.0
  0
LINE
  5
1BC
330
1BA
100
AcDbEntity
  8
_0-1_荳_闊_
  6
Continuous
 62
     7
100
AcDbLine
 10
1433.740441742953
 20
-604.039910960426
 30
0.0
 11
1433.740441742953
 21
-664.039910960426
 31
0.0
  0
LINE
  5
1BD
330
1BA
100
AcDbEntity
  8
_0-1_荳_闊_
  6
Continuous
 62
     7
100
AcDbLine
 10
1433.740441742953
 20
-664.039910960426
 30
0.0
 11
1423.740441742953
 21
-664.039910960426
 31
0.0
  0
LINE
  5
1BE
330
1BA
100
AcDbEntity
  8
_0-1_荳_闊_
  6
Continuous
 62
     7
100
AcDbLine
 10
1423.740441742953
 20
-664.039910960426
 30
0.0
 11
1423.740441742953
 21
-604.039910960426
 31
0.0
  0
LINE
  5
1BF
330
1BA
100
AcDbEntity
  8
_0-1_荳_闊_
  6
Continuous
 62
     7
100
AcDbLine
 10
1419.740441742953
 20
-611.3076887382037
 30
0.0
 11
1437.740441742953
 21
-611.3076887382037
 31
0.0
  0
LINE
  5
1C0
330
1BA
100
AcDbEntity
  8
_0-1_荳_闊_
  6
Continuous
 62
     7
100
AcDbLine
 10
1437.740441742953
 20
-611.3076887382037
 30
0.0
 11
1437.740441742953
 21
-619.3076887382037
 31
0.0
  0
LINE
  5
1C1
330
1BA
100
AcDbEntity
  8
_0-1_荳_闊_
  6
Continuous
 62
     7
100
AcDbLine
 10
1437.740441742953
 20
-619.3076887382037
 30
0.0
 11
1419.740441742953
 21
-619.3076887382037
 31
0.0
  0
LINE
  5
1C2
330
1BA
100
AcDbEntity
  8
_0-1_荳_闊_
  6
Continuous
 62
     7
100
AcDbLine
 10
1419.740441742953
 20
-619.3076887382037
 30
0.0
 11
1419.740441742953
 21
-611.3076887382037
 31
0.0
  0
ENDBLK
  5
1C3
330
1BA
100
AcDbEntity
  8
0
100
AcDbBlockEnd
  0
BLOCK
  5
1C4
330
1C5
100
AcDbEntity
  8
0
100
AcDbBlockBegin
  2
-027-繧_繝_繝_繝__23-1
 70
     0
 10
0.0
 20
0.0
 30
0.0
  3
-027-繧_繝_繝_繝__23-1
  1

  0
LINE
  5
1C6
330
1C5
100
AcDbEntity
  8
_0-1_荳_闊_
  6
Continuous
 62
     7
100
AcDbLine
 10
1223.740441742953
 20
-604.039910960426
 30
0.0
 11
1233.740441742953
 21
-604.039910960426
 31
0.0
  0
LINE
  5
1C7
330
1C5
100
AcDbEntity
  8
_0-1_荳_闊_
  6
Continuous
 62
     7
100
AcDbLine
 10
1233.740441742953
 20
-604.039910960426
 30
0.0
 11
1233.740441742953
 21
-664.039910960426
 31
0.0
  0
LINE
  5
1C8
330
1C5
100
AcDbEntity
  8
_0-1_荳_闊_
  6
Continuous
 62
     7
100
AcDbLine
 10
1233.740441742953
 20
-664.039910960426
 30
0.0
 11
1223.740441742953
 21
-664.039910960426
 31
0.0
  0
LINE
  5
1C9
330
1C5
100
AcDbEntity
  8
_0-1_荳_闊_
  6
Continuous
 62
     7
100
AcDbLine
 10
1223.740441742953
 20
-664.039910960426
 30
0.0
 11
1223.740441742953
 21
-604.039910960426
 31
0.0
  0
LINE
  5
1CA
330
1C5
100
AcDbEntity
  8
_0-1_荳_闊_
  6
Continuous
 62
     7
100
AcDbLine
 10
1219.740441742953
 20
-611.3076887382037
 30
0.0
 11
1237.740441742953
 21
-611.3076887382037
 31
0.0
  0
LINE
  5
1CB
330
1C5
100
AcDbEntity
  8
_0-1_荳_闊_
  6
Continuous
 62
     7
100
AcDbLine
 10
1237.740441742953
 20
-611.3076887382037
 30
0.0
 11
1237.740441742953
 21
-619.3076887382037
 31
0.0
  0
LINE
  5
1CC
330
1C5
100
AcDbEntity
  8
_0-1_荳_闊_
  6
Continuous
 62
     7
100
AcDbLine
 10
1237.740441742953
 20
-619.3076887382037
 30
0.0
 11
1219.740441742953
 21
-619.3076887382037
 31
0.0
  0
LINE
  5
1CD
330
1C5
100
AcDbEntity
  8
_0-1_荳_闊_
  6
Continuous
 62
     7
100
AcDbLine
 10
1219.740441742953
 20
-619.3076887382037
 30
0.0
 11
1219.740441742953
 21
-611.3076887382037
 31
0.0
  0
ENDBLK
  5
1CE
330
1C5
100
AcDbEntity
  8
0
100
AcDbBlockEnd
  0
BLOCK
  5
1CF
330
1D0
100
AcDbEntity
  8
0
100
AcDbBlockBegin
  2
-028-_D28
 70
     0
 10
0.0
 20
0.0
 30
0.0
  3
-028-_D28
  1

  0
LINE
  5
1D1
330
1D0
100
AcDbEntity
  8
_0-2_蟇_豕__
  6
Continuous
 62
     7
100
AcDbLine
 10
400.0
 20
-475.8719324506727
 30
0.0
 11
544.0
 21
-475.8719324506727
 31
0.0
  0
LINE
  5
1D2
330
1D0
100
AcDbEntity
  8
_0-d__0-2_蟇_豕__ts
  6
Continuous
 62
     7
100
AcDbLine
 10
342.0379973944099
 20
-55.87193245067274
 30
0.0
 11
544.0
 21
-55.87193245067272
 31
0.0
  0
LINE
  5
1D3
330
1D0
100
AcDbEntity
  8
_0-5__0-2_蟇_豕___4-1
  6
Continuous
 62
     7
100
AcDbLine
 10
534.0
 20
-469.8722986616102
 30
0.0
 11
534.0
 21
-61.87156623973522
 31
0.0
  0
INSERT
  5
1D4
330
1D0
100
AcDbEntity
  8
_0-2_蟇_豕__
100
AcDbBlockReference
  2
-020-VW_EMPTYBALL
 10
534.0
 20
-475.8719324506727
 30
0.0
 41
5.9996337890625
 42
5.9996337890625
 50
270.0
  0
INSERT
  5
1D5
330
1D0
100
AcDbEntity
  8
_0-d__0-2_蟇_豕__ts
100
AcDbBlockReference
  2
-020-VW_EMPTYBALL
 10
534.0
 20
-55.87193245067272
 30
0.0
 41
5.9996337890625
 42
5.9996337890625
 50
90.0
  0
TEXT
  5
1D6
330
1D0
100
AcDbEntity
  8
_0-2_蟇_豕__
 62
     7
100
AcDbText
 10
529.0
 20
-284.1498865522352
 30
0.0
 40
24.37060546875
  1
420
 50
90.0
100
AcDbText
  0
POINT
  5
1D7
330
1D0
100
AcDbEntity
  8
_0-c__0-3_Defpoints
 62
     7
100
AcDbPoint
 10
390.0
 20
-475.8719324506727
 30
0.0
  0
POINT
  5
1D8
330
1D0
100
AcDbEntity
  8
_0-c__0-3_Defpoints
 62
     7
100
AcDbPoint
 10
332.0379973944099
 20
-55.87193245067274
 30
0.0
  0
POINT
  5
1D9
330
1D0
100
AcDbEntity
  8
_0-c__0-3_Defpoints
 62
     7
100
AcDbPoint
 10
534.0
 20
-55.87193245067272
 30
0.0
  0
ENDBLK
  5
1DA
330
1D0
100
AcDbEntity
  8
0
100
AcDbBlockEnd
  0
BLOCK
  5
1DB
330
1DC
100
AcDbEntity
  8
0
100
AcDbBlockBegin
  2
-029-_D29
 70
     0
 10
0.0
 20
0.0
 30
0.0
  3
-029-_D29
  1

  0
LINE
  5
1DD
330
1DC
100
AcDbEntity
  8
_0-d__0-2_蟇_豕__ts
  6
Continuous
 62
     7
100
AcDbLine
 10
292.03799739441
 20
-625.8719324506727
 30
0.0
 11
544.0
 21
-625.8719324506726
 31
0.0
  0
LINE
  5
1DE
330
1DC
100
AcDbEntity
  8
_0-2_蟇_豕__
  6
Continuous
 62
     7
100
AcDbLine
 10
400.0
 20
-475.8719324506727
 30
0.0
 11
544.0
 21
-475.8719324506727
 31
0.0
  0
LINE
  5
1DF
330
1DC
100
AcDbEntity
  8
_0-2_蟇_豕__
  6
Continuous
 62
     7
100
AcDbLine
 10
534.0
 20
-619.87229866161
 30
0.0
 11
534.0
 21
-481.8715662397352
 31
0.0
  0
INSERT
  5
1E0
330
1DC
100
AcDbEntity
  8
_0-2_蟇_豕__
100
AcDbBlockReference
  2
-020-VW_EMPTYBALL
 10
534.0
 20
-625.8719324506726
 30
0.0
 41
5.9996337890625
 42
5.9996337890625
 50
270.0
  0
INSERT
  5
1E1
330
1DC
100
AcDbEntity
  8
_0-d__0-2_蟇_豕__ts
100
AcDbBlockReference
  2
-020-VW_EMPTYBALL
 10
534.0
 20
-475.8719324506727
 30
0.0
 41
5.9996337890625
 42
5.9996337890625
 50
90.0
  0
TEXT
  5
1E2
330
1DC
100
AcDbEntity
  8
_0-d__0-2_蟇_豕__ts
 62
     7
100
AcDbText
 10
529.0
 20
-569.149886552235
 30
0.0
 40
24.37060546875
  1
150
 50
90.0
100
AcDbText
  0
POINT
  5
1E3
330
1DC
100
AcDbEntity
  8
_0-c__0-3_Defpoints
 62
     7
100
AcDbPoint
 10
282.03799739441
 20
-625.8719324506727
 30
0.0
  0
POINT
  5
1E4
330
1DC
100
AcDbEntity
  8
_0-c__0-3_Defpoints
 62
     7
100
AcDbPoint
 10
390.0
 20
-475.8719324506727
 30
0.0
  0
POINT
  5
1E5
330
1DC
100
AcDbEntity
  8
_0-c__0-3_Defpoints
 62
     7
100
AcDbPoint
 10
534.0
 20
-475.8719324506727
 30
0.0
  0
ENDBLK
  5
1E6
330
1DC
100
AcDbEntity
  8
0
100
AcDbBlockEnd
  0
BLOCK
  5
1E7
330
1E8
100
AcDbEntity
  8
0
100
AcDbBlockBegin
  2
-030-_D30
 70
     0
 10
0.0
 20
0.0
 30
0.0
  3
-030-_D30
  1

  0
LINE
  5
1E9
330
1E8
100
AcDbEntity
  8
_0-d__0-2_蟇_豕__ts
  6
Continuous
 62
     7
100
AcDbLine
 10
317.03799739441
 20
-925.8719324506724
 30
0.0
 11
544.0
 21
-925.8719324506724
 31
0.0
  0
LINE
  5
1EA
330
1E8
100
AcDbEntity
  8
_0-d__0-2_蟇_豕__ts
  6
Continuous
 62
     7
100
AcDbLine
 10
292.03799739441
 20
-625.8719324506727
 30
0.0
 11
544.0
 21
-625.8719324506727
 31
0.0
  0
LINE
  5
1EB
330
1E8
100
AcDbEntity
  8
_0-b__0-2_蟇_豕___18-1
  6
Continuous
 62
     7
100
AcDbLine
 10
534.0
 20
-919.8722986616099
 30
0.0
 11
534.0
 21
-631.8715662397352
 31
0.0
  0
INSERT
  5
1EC
330
1E8
100
AcDbEntity
  8
_0-d__0-2_蟇_豕__ts
100
AcDbBlockReference
  2
-020-VW_EMPTYBALL
 10
534.0
 20
-925.8719324506724
 30
0.0
 41
5.9996337890625
 42
5.9996337890625
 50
270.0
  0
INSERT
  5
1ED
330
1E8
100
AcDbEntity
  8
_0-d__0-2_蟇_豕__ts
100
AcDbBlockReference
  2
-020-VW_EMPTYBALL
 10
534.0
 20
-625.8719324506727
 30
0.0
 41
5.9996337890625
 42
5.9996337890625
 50
90.0
  0
TEXT
  5
1EE
330
1E8
100
AcDbEntity
  8
_0-d__0-2_蟇_豕__ts
 62
     7
100
AcDbText
 10
529.0
 20
-794.149886552235
 30
0.0
 40
24.37060546875
  1
300
 50
90.0
100
AcDbText
  0
POINT
  5
1EF
330
1E8
100
AcDbEntity
  8
_0-c__0-3_Defpoints
 62
     7
100
AcDbPoint
 10
307.03799739441
 20
-925.8719324506724
 30
0.0
  0
POINT
  5
1F0
330
1E8
100
AcDbEntity
  8
_0-c__0-3_Defpoints
 62
     7
100
AcDbPoint
 10
282.03799739441
 20
-625.8719324506727
 30
0.0
  0
POINT
  5
1F1
330
1E8
100
AcDbEntity
  8
_0-c__0-3_Defpoints
 62
     7
100
AcDbPoint
 10
534.0
 20
-625.8719324506727
 30
0.0
  0
ENDBLK
  5
1F2
330
1E8
100
AcDbEntity
  8
0
100
AcDbBlockEnd
  0
BLOCK
  5
1F3
330
1F4
100
AcDbEntity
  8
0
100
AcDbBlockBegin
  2
-031-_D31
 70
     0
 10
0.0
 20
0.0
 30
0.0
  3
-031-_D31
  1

  0
LINE
  5
1F5
330
1F4
100
AcDbEntity
  8
_0-d__0-2_蟇_豕__ts
  6
Continuous
 62
     7
100
AcDbLine
 10
317.03799739441
 20
-975.8719324506724
 30
0.0
 11
544.0
 21
-975.8719324506724
 31
0.0
  0
LINE
  5
1F6
330
1F4
100
AcDbEntity
  8
_0-d__0-2_蟇_豕__ts
  6
Continuous
 62
     7
100
AcDbLine
 10
317.03799739441
 20
-925.8719324506724
 30
0.0
 11
544.0
 21
-925.8719324506724
 31
0.0
  0
LINE
  5
1F7
330
1F4
100
AcDbEntity
  8
_0-d__0-2_蟇_豕__ts
  6
Continuous
 62
     7
100
AcDbLine
 10
534.0
 20
-969.8722986616099
 30
0.0
 11
534.0
 21
-931.8715662397348
 31
0.0
  0
INSERT
  5
1F8
330
1F4
100
AcDbEntity
  8
_0-d__0-2_蟇_豕__ts
100
AcDbBlockReference
  2
-020-VW_EMPTYBALL
 10
534.0
 20
-975.8719324506724
 30
0.0
 41
5.9996337890625
 42
5.9996337890625
 50
270.0
  0
INSERT
  5
1F9
330
1F4
100
AcDbEntity
  8
_0-d__0-2_蟇_豕__ts
100
AcDbBlockReference
  2
-020-VW_EMPTYBALL
 10
534.0
 20
-925.8719324506724
 30
0.0
 41
5.9996337890625
 42
5.9996337890625
 50
90.0
  0
TEXT
  5
1FA
330
1F4
100
AcDbEntity
  8
_0-d__0-2_蟇_豕__ts
 62
     7
100
AcDbText
 10
529.0
 20
-963.0572351850473
 30
0.0
 40
24.37060546875
  1
50
 50
90.0
100
AcDbText
  0
POINT
  5
1FB
330
1F4
100
AcDbEntity
  8
_0-c__0-3_Defpoints
 62
     7
100
AcDbPoint
 10
307.03799739441
 20
-975.8719324506724
 30
0.0
  0
POINT
  5
1FC
330
1F4
100
AcDbEntity
  8
_0-c__0-3_Defpoints
 62
     7
100
AcDbPoint
 10
307.03799739441
 20
-925.8719324506724
 30
0.0
  0
POINT
  5
1FD
330
1F4
100
AcDbEntity
  8
_0-c__0-3_Defpoints
 62
     7
100
AcDbPoint
 10
534.0
 20
-925.8719324506724
 30
0.0
  0
ENDBLK
  5
1FE
330
1F4
100
AcDbEntity
  8
0
100
AcDbBlockEnd
  0
BLOCK
  5
1FF
330
200
100
AcDbEntity
  8
0
100
AcDbBlockBegin
  2
-032-_D32
 70
     0
 10
0.0
 20
0.0
 30
0.0
  3
-032-_D32
  1

  0
LINE
  5
201
330
200
100
AcDbEntity
  8
_0-d__0-2_蟇_豕__ts
  6
Continuous
 62
     7
100
AcDbLine
 10
-1317.92400521118
 20
-45.87193245067274
 30
0.0
 11
-1317.92400521118
 21
41.99999999999999
 31
0.0
  0
LINE
  5
202
330
200
100
AcDbEntity
  8
_0-d__0-2_蟇_豕__ts
  6
Continuous
 62
     7
100
AcDbLine
 10
-1467.96200260559
 20
-45.87193245067274
 30
0.0
 11
-1467.96200260559
 21
41.99999999999999
 31
0.0
  0
LINE
  5
203
330
200
100
AcDbEntity
  8
_0-d__0-2_蟇_豕__ts
  6
Continuous
 62
     7
100
AcDbLine
 10
-1323.923639000243
 20
32.0
 30
0.0
 11
-1461.962368816528
 21
32.0
 31
0.0
  0
INSERT
  5
204
330
200
100
AcDbEntity
  8
_0-2_蟇_豕__
100
AcDbBlockReference
  2
-020-VW_EMPTYBALL
 10
-1317.92400521118
 20
32.0
 30
0.0
 41
5.9996337890625
 42
5.9996337890625
  0
INSERT
  5
205
330
200
100
AcDbEntity
  8
_0-d__0-2_蟇_豕__ts
100
AcDbBlockReference
  2
-020-VW_EMPTYBALL
 10
-1467.96200260559
 20
32.0
 30
0.0
 41
5.9996337890625
 42
5.9996337890625
 50
180.0
  0
TEXT
  5
206
330
200
100
AcDbEntity
  8
_0-d__0-2_蟇_豕__ts
 62
     7
100
AcDbText
 10
-1411.220958009947
 20
36.99999999999999
 30
0.0
 40
24.37060546875
  1
150
100
AcDbText
  0
POINT
  5
207
330
200
100
AcDbEntity
  8
_0-c__0-3_Defpoints
 62
     7
100
AcDbPoint
 10
-1317.92400521118
 20
-55.87193245067274
 30
0.0
  0
POINT
  5
208
330
200
100
AcDbEntity
  8
_0-c__0-3_Defpoints
 62
     7
100
AcDbPoint
 10
-1467.96200260559
 20
-55.87193245067274
 30
0.0
  0
POINT
  5
209
330
200
100
AcDbEntity
  8
_0-c__0-3_Defpoints
 62
     7
100
AcDbPoint
 10
-1467.96200260559
 20
32.0
 30
0.0
  0
ENDBLK
  5
20A
330
200
100
AcDbEntity
  8
0
100
AcDbBlockEnd
  0
BLOCK
  5
20B
330
20C
100
AcDbEntity
  8
0
100
AcDbBlockBegin
  2
-033-_D33
 70
     0
 10
0.0
 20
0.0
 30
0.0
  3
-033-_D33
  1

  0
LINE
  5
20D
330
20C
100
AcDbEntity
  8
_0-d__0-2_蟇_豕__ts
  6
Continuous
 62
     7
100
AcDbLine
 10
-1217.96200260559
 20
-45.87193245067274
 30
0.0
 11
-1217.96200260559
 21
41.99999999999999
 31
0.0
  0
LINE
  5
20E
330
20C
100
AcDbEntity
  8
_0-d__0-2_蟇_豕__ts
  6
Continuous
 62
     7
100
AcDbLine
 10
-1317.92400521118
 20
-45.87193245067274
 30
0.0
 11
-1317.92400521118
 21
41.99999999999999
 31
0.0
  0
LINE
  5
20F
330
20C
100
AcDbEntity
  8
_0-d__0-2_蟇_豕__ts
  6
Continuous
 62
     7
100
AcDbLine
 10
-1223.961636394653
 20
32.0
 30
0.0
 11
-1311.924371422118
 21
32.0
 31
0.0
  0
INSERT
  5
210
330
20C
100
AcDbEntity
  8
_0-d__0-2_蟇_豕__ts
100
AcDbBlockReference
  2
-020-VW_EMPTYBALL
 10
-1217.96200260559
 20
32.0
 30
0.0
 41
5.9996337890625
 42
5.9996337890625
  0
INSERT
  5
211
330
20C
100
AcDbEntity
  8
_0-d__0-2_蟇_豕__ts
100
AcDbBlockReference
  2
-020-VW_EMPTYBALL
 10
-1317.92400521118
 20
32.0
 30
0.0
 41
5.9996337890625
 42
5.9996337890625
 50
180.0
  0
TEXT
  5
212
330
20C
100
AcDbEntity
  8
_0-d__0-2_蟇_豕__ts
 62
     7
100
AcDbText
 10
-1286.220958009947
 20
36.99999999999999
 30
0.0
 40
24.37060546875
  1
100
100
AcDbText
  0
POINT
  5
213
330
20C
100
AcDbEntity
  8
_0-c__0-3_Defpoints
 62
     7
100
AcDbPoint
 10
-1217.96200260559
 20
-55.87193245067274
 30
0.0
  0
POINT
  5
214
330
20C
100
AcDbEntity
  8
_0-c__0-3_Defpoints
 62
     7
100
AcDbPoint
 10
-1317.92400521118
 20
-55.87193245067274
 30
0.0
  0
POINT
  5
215
330
20C
100
AcDbEntity
  8
_0-c__0-3_Defpoints
 62
     7
100
AcDbPoint
 10
-1317.92400521118
 20
32.0
 30
0.0
  0
ENDBLK
  5
216
330
20C
100
AcDbEntity
  8
0
100
AcDbBlockEnd
  0
BLOCK
  5
217
330
218
100
AcDbEntity
  8
0
100
AcDbBlockBegin
  2
-034-_D34
 70
     0
 10
0.0
 20
0.0
 30
0.0
  3
-034-_D34
  1

  0
LINE
  5
219
330
218
100
AcDbEntity
  8
_0-d__0-2_蟇_豕__ts
  6
Continuous
 62
     7
100
AcDbLine
 10
82.03799739440986
 20
-45.87193245067274
 30
0.0
 11
82.03799739440979
 21
41.99999999999999
 31
0.0
  0
LINE
  5
21A
330
218
100
AcDbEntity
  8
_0-d__0-2_蟇_豕__ts
  6
Continuous
 62
     7
100
AcDbLine
 10
-1217.96200260559
 20
-45.87193245067274
 30
0.0
 11
-1217.96200260559
 21
41.99999999999999
 31
0.0
  0
LINE
  5
21B
330
218
100
AcDbEntity
  8
_0-d__0-2_蟇_豕__ts
  6
Continuous
 62
     7
100
AcDbLine
 10
76.03836360534728
 20
32.0
 30
0.0
 11
-1211.962368816528
 21
32.0
 31
0.0
  0
INSERT
  5
21C
330
218
100
AcDbEntity
  8
_0-d__0-2_蟇_豕__ts
100
AcDbBlockReference
  2
-020-VW_EMPTYBALL
 10
82.03799739440979
 20
32.0
 30
0.0
 41
5.9996337890625
 42
5.9996337890625
  0
INSERT
  5
21D
330
218
100
AcDbEntity
  8
_0-d__0-2_蟇_豕__ts
100
AcDbBlockReference
  2
-020-VW_EMPTYBALL
 10
-1217.96200260559
 20
32.0
 30
0.0
 41
5.9996337890625
 42
5.9996337890625
 50
180.0
  0
TEXT
  5
21E
330
218
100
AcDbEntity
  8
_0-d__0-2_蟇_豕__ts
 62
     7
100
AcDbText
 10
-592.3326080743402
 20
36.99999999999999
 30
0.0
 40
24.37060546875
  1
1300
100
AcDbText
  0
POINT
  5
21F
330
218
100
AcDbEntity
  8
_0-c__0-3_Defpoints
 62
     7
100
AcDbPoint
 10
82.03799739440988
 20
-55.87193245067274
 30
0.0
  0
POINT
  5
220
330
218
100
AcDbEntity
  8
_0-c__0-3_Defpoints
 62
     7
100
AcDbPoint
 10
-1217.96200260559
 20
-55.87193245067274
 30
0.0
  0
POINT
  5
221
330
218
100
AcDbEntity
  8
_0-c__0-3_Defpoints
 62
     7
100
AcDbPoint
 10
-1217.96200260559
 20
32.0
 30
0.0
  0
ENDBLK
  5
222
330
218
100
AcDbEntity
  8
0
100
AcDbBlockEnd
  0
BLOCK
  5
223
330
224
100
AcDbEntity
  8
0
100
AcDbBlockBegin
  2
-035-_D35
 70
     0
 10
0.0
 20
0.0
 30
0.0
  3
-035-_D35
  1

  0
LINE
  5
225
330
224
100
AcDbEntity
  8
_0-d__0-2_蟇_豕__ts
  6
Continuous
 62
     7
100
AcDbLine
 10
182.0
 20
-45.87193245067274
 30
0.0
 11
182.0
 21
41.99999999999999
 31
0.0
  0
LINE
  5
226
330
224
100
AcDbEntity
  8
_0-d__0-2_蟇_豕__ts
  6
Continuous
 62
     7
100
AcDbLine
 10
82.03799739440988
 20
-45.87193245067274
 30
0.0
 11
82.03799739440988
 21
41.99999999999999
 31
0.0
  0
LINE
  5
227
330
224
100
AcDbEntity
  8
_0-d__0-2_蟇_豕__ts
  6
Continuous
 62
     7
100
AcDbLine
 10
176.0003662109375
 20
32.0
 30
0.0
 11
88.03763118347237
 21
32.0
 31
0.0
  0
INSERT
  5
228
330
224
100
AcDbEntity
  8
_0-d__0-2_蟇_豕__ts
100
AcDbBlockReference
  2
-020-VW_EMPTYBALL
 10
182.0
 20
32.0
 30
0.0
 41
5.9996337890625
 42
5.9996337890625
  0
INSERT
  5
229
330
224
100
AcDbEntity
  8
_0-d__0-2_蟇_豕__ts
100
AcDbBlockReference
  2
-020-VW_EMPTYBALL
 10
82.03799739440988
 20
32.0
 30
0.0
 41
5.9996337890625
 42
5.9996337890625
 50
180.0
  0
TEXT
  5
22A
330
224
100
AcDbEntity
  8
_0-d__0-2_蟇_豕__ts
 62
     7
100
AcDbText
 10
113.7410445956424
 20
36.99999999999999
 30
0.0
 40
24.37060546875
  1
100
100
AcDbText
  0
POINT
  5
22B
330
224
100
AcDbEntity
  8
_0-c__0-3_Defpoints
 62
     7
100
AcDbPoint
 10
182.0
 20
-55.87193245067274
 30
0.0
  0
POINT
  5
22C
330
224
100
AcDbEntity
  8
_0-c__0-3_Defpoints
 62
     7
100
AcDbPoint
 10
82.03799739440988
 20
-55.87193245067274
 30
0.0
  0
POINT
  5
22D
330
224
100
AcDbEntity
  8
_0-c__0-3_Defpoints
 62
     7
100
AcDbPoint
 10
82.03799739440988
 20
32.0
 30
0.0
  0
ENDBLK
  5
22E
330
224
100
AcDbEntity
  8
0
100
AcDbBlockEnd
  0
BLOCK
  5
22F
330
230
100
AcDbEntity
  8
0
100
AcDbBlockBegin
  2
-036-_D36
 70
     0
 10
0.0
 20
0.0
 30
0.0
  3
-036-_D36
  1

  0
LINE
  5
231
330
230
100
AcDbEntity
  8
_0-d__0-2_蟇_豕__ts
  6
Continuous
 62
     7
100
AcDbLine
 10
332.0379973944099
 20
-45.87193245067274
 30
0.0
 11
332.0379973944099
 21
41.99999999999999
 31
0.0
  0
LINE
  5
232
330
230
100
AcDbEntity
  8
_0-d__0-2_蟇_豕__ts
  6
Continuous
 62
     7
100
AcDbLine
 10
182.0
 20
-45.87193245067274
 30
0.0
 11
182.0
 21
41.99999999999999
 31
0.0
  0
LINE
  5
233
330
230
100
AcDbEntity
  8
_0-d__0-2_蟇_豕__ts
  6
Continuous
 62
     7
100
AcDbLine
 10
326.0383636053474
 20
32.0
 30
0.0
 11
187.9996337890625
 21
32.0
 31
0.0
  0
INSERT
  5
234
330
230
100
AcDbEntity
  8
_0-2_蟇_豕__
100
AcDbBlockReference
  2
-020-VW_EMPTYBALL
 10
332.0379973944099
 20
32.0
 30
0.0
 41
5.9996337890625
 42
5.9996337890625
  0
INSERT
  5
235
330
230
100
AcDbEntity
  8
_0-2_蟇_豕__
100
AcDbBlockReference
  2
-020-VW_EMPTYBALL
 10
182.0
 20
32.0
 30
0.0
 41
5.9996337890625
 42
5.9996337890625
 50
180.0
  0
TEXT
  5
236
330
230
100
AcDbEntity
  8
_0-d__0-2_蟇_豕__ts
 62
     7
100
AcDbText
 10
238.7410445956424
 20
36.99999999999999
 30
0.0
 40
24.37060546875
  1
150
100
AcDbText
  0
POINT
  5
237
330
230
100
AcDbEntity
  8
_0-c__0-3_Defpoints
 62
     7
100
AcDbPoint
 10
332.0379973944099
 20
-55.87193245067274
 30
0.0
  0
POINT
  5
238
330
230
100
AcDbEntity
  8
_0-c__0-3_Defpoints
 62
     7
100
AcDbPoint
 10
182.0
 20
-55.87193245067274
 30
0.0
  0
POINT
  5
239
330
230
100
AcDbEntity
  8
_0-c__0-3_Defpoints
 62
     7
100
AcDbPoint
 10
182.0
 20
32.0
 30
0.0
  0
ENDBLK
  5
23A
330
230
100
AcDbEntity
  8
0
100
AcDbBlockEnd
  0
BLOCK
  5
23B
330
23C
100
AcDbEntity
  8
0
100
AcDbBlockBegin
  2
-037-_D37
 70
     0
 10
0.0
 20
0.0
 30
0.0
  3
-037-_D37
  1

  0
LINE
  5
23D
330
23C
100
AcDbEntity
  8
_0-d__0-2_蟇_豕__ts
  6
Continuous
 62
     7
100
AcDbLine
 10
332.0379973944099
 20
-50.24693245067274
 30
0.0
 11
332.0379973944098
 21
125.0
 31
0.0
  0
LINE
  5
23E
330
23C
100
AcDbEntity
  8
_0-d__0-2_蟇_豕__ts
  6
Continuous
 62
     7
100
AcDbLine
 10
-1467.96200260559
 20
-45.87193245067274
 30
0.0
 11
-1467.96200260559
 21
125.0
 31
0.0
  0
LINE
  5
23F
330
23C
100
AcDbEntity
  8
_0-d__0-2_蟇_豕__ts
  6
Continuous
 62
     7
100
AcDbLine
 10
326.0383636053473
 20
115.0
 30
0.0
 11
-1461.962368816528
 21
115.0
 31
0.0
  0
INSERT
  5
240
330
23C
100
AcDbEntity
  8
_0-d__0-2_蟇_豕__ts
100
AcDbBlockReference
  2
-020-VW_EMPTYBALL
 10
332.0379973944098
 20
115.0
 30
0.0
 41
5.9996337890625
 42
5.9996337890625
  0
INSERT
  5
241
330
23C
100
AcDbEntity
  8
_0-2_蟇_豕__
100
AcDbBlockReference
  2
-020-VW_EMPTYBALL
 10
-1467.96200260559
 20
115.0
 30
0.0
 41
5.9996337890625
 42
5.9996337890625
 50
180.0
  0
TEXT
  5
242
330
23C
100
AcDbEntity
  8
_0-d__0-2_蟇_豕__ts
 62
     7
100
AcDbText
 10
-592.3326080743402
 20
120.0
 30
0.0
 40
24.37060546875
  1
1800
100
AcDbText
  0
POINT
  5
243
330
23C
100
AcDbEntity
  8
_0-c__0-3_Defpoints
 62
     7
100
AcDbPoint
 10
332.0379973944099
 20
-60.24693245067274
 30
0.0
  0
POINT
  5
244
330
23C
100
AcDbEntity
  8
_0-c__0-3_Defpoints
 62
     7
100
AcDbPoint
 10
-1467.96200260559
 20
-55.87193245067274
 30
0.0
  0
POINT
  5
245
330
23C
100
AcDbEntity
  8
_0-c__0-3_Defpoints
 62
     7
100
AcDbPoint
 10
-1467.96200260559
 20
115.0
 30
0.0
  0
ENDBLK
  5
246
330
23C
100
AcDbEntity
  8
0
100
AcDbBlockEnd
  0
BLOCK
  5
247
330
248
100
AcDbEntity
  8
0
100
AcDbBlockBegin
  2
-038-_D38
 70
     0
 10
0.0
 20
0.0
 30
0.0
  3
-038-_D38
  1

  0
LINE
  5
249
330
248
100
AcDbEntity
  8
_0-d__0-2_蟇_豕__ts
  6
Continuous
 62
     7
100
AcDbLine
 10
343.0379973944099
 20
929.6172675493272
 30
0.0
 11
422.0
 21
929.6172675493272
 31
0.0
  0
LINE
  5
24A
330
248
100
AcDbEntity
  8
_0-d__0-2_蟇_豕__ts
  6
Continuous
 62
     7
100
AcDbLine
 10
343.0379973944099
 20
1029.617267549327
 30
0.0
 11
422.0
 21
1029.617267549327
 31
0.0
  0
LINE
  5
24B
330
248
100
AcDbEntity
  8
_0-d__0-2_蟇_豕__ts
  6
Continuous
 62
     7
100
AcDbLine
 10
412.0
 20
935.6169013383897
 30
0.0
 11
412.0
 21
1023.617633760265
 31
0.0
  0
INSERT
  5
24C
330
248
100
AcDbEntity
  8
_0-d__0-2_蟇_豕__ts
100
AcDbBlockReference
  2
-020-VW_EMPTYBALL
 10
412.0
 20
929.6172675493272
 30
0.0
 41
5.9996337890625
 42
5.9996337890625
 50
270.0
  0
INSERT
  5
24D
330
248
100
AcDbEntity
  8
_0-2_蟇_豕__
100
AcDbBlockReference
  2
-020-VW_EMPTYBALL
 10
412.0
 20
1029.617267549327
 30
0.0
 41
5.9996337890625
 42
5.9996337890625
 50
90.0
  0
TEXT
  5
24E
330
248
100
AcDbEntity
  8
_0-d__0-2_蟇_豕__ts
 62
     7
100
AcDbText
 10
407.0
 20
961.3393134477645
 30
0.0
 40
24.37060546875
  1
100
 50
90.0
100
AcDbText
  0
POINT
  5
24F
330
248
100
AcDbEntity
  8
_0-c__0-3_Defpoints
 62
     7
100
AcDbPoint
 10
333.0379973944099
 20
929.6172675493272
 30
0.0
  0
POINT
  5
250
330
248
100
AcDbEntity
  8
_0-c__0-3_Defpoints
 62
     7
100
AcDbPoint
 10
333.0379973944099
 20
1029.617267549327
 30
0.0
  0
POINT
  5
251
330
248
100
AcDbEntity
  8
_0-c__0-3_Defpoints
 62
     7
100
AcDbPoint
 10
412.0
 20
1029.617267549327
 30
0.0
  0
ENDBLK
  5
252
330
248
100
AcDbEntity
  8
0
100
AcDbBlockEnd
  0
BLOCK
  5
253
330
254
100
AcDbEntity
  8
0
100
AcDbBlockBegin
  2
-039-_D39
 70
     0
 10
0.0
 20
0.0
 30
0.0
  3
-039-_D39
  1

  0
LINE
  5
255
330
254
100
AcDbEntity
  8
_0-d__0-2_蟇_豕__ts
  6
Continuous
 62
     7
100
AcDbLine
 10
343.0379973944099
 20
535.6172675493272
 30
0.0
 11
422.0
 21
535.6172675493272
 31
0.0
  0
LINE
  5
256
330
254
100
AcDbEntity
  8
_0-d__0-2_蟇_豕__ts
  6
Continuous
 62
     7
100
AcDbLine
 10
343.0379973944099
 20
929.6172675493272
 30
0.0
 11
422.0
 21
929.6172675493272
 31
0.0
  0
LINE
  5
257
330
254
100
AcDbEntity
  8
_0-d__0-2_蟇_豕__ts
  6
Continuous
 62
     7
100
AcDbLine
 10
412.0
 20
541.6169013383897
 30
0.0
 11
412.0
 21
923.6176337602648
 31
0.0
  0
INSERT
  5
258
330
254
100
AcDbEntity
  8
_0-2_蟇_豕__
100
AcDbBlockReference
  2
-020-VW_EMPTYBALL
 10
412.0
 20
535.6172675493272
 30
0.0
 41
5.9996337890625
 42
5.9996337890625
 50
270.0
  0
INSERT
  5
259
330
254
100
AcDbEntity
  8
_0-d__0-2_蟇_豕__ts
100
AcDbBlockReference
  2
-020-VW_EMPTYBALL
 10
412.0
 20
929.6172675493272
 30
0.0
 41
5.9996337890625
 42
5.9996337890625
 50
90.0
  0
TEXT
  5
25A
330
254
100
AcDbEntity
  8
_0-d__0-2_蟇_豕__ts
 62
     7
100
AcDbText
 10
407.0
 20
714.3393134477646
 30
0.0
 40
24.37060546875
  1
394
 50
90.0
100
AcDbText
  0
POINT
  5
25B
330
254
100
AcDbEntity
  8
_0-c__0-3_Defpoints
 62
     7
100
AcDbPoint
 10
333.0379973944099
 20
535.6172675493272
 30
0.0
  0
POINT
  5
25C
330
254
100
AcDbEntity
  8
_0-c__0-3_Defpoints
 62
     7
100
AcDbPoint
 10
333.0379973944099
 20
929.6172675493272
 30
0.0
  0
POINT
  5
25D
330
254
100
AcDbEntity
  8
_0-c__0-3_Defpoints
 62
     7
100
AcDbPoint
 10
412.0
 20
929.6172675493272
 30
0.0
  0
ENDBLK
  5
25E
330
254
100
AcDbEntity
  8
0
100
AcDbBlockEnd
  0
BLOCK
  5
25F
330
260
100
AcDbEntity
  8
0
100
AcDbBlockBegin
  2
-040-_D40
 70
     0
 10
0.0
 20
0.0
 30
0.0
  3
-040-_D40
  1

  0
LINE
  5
261
330
260
100
AcDbEntity
  8
_0-d__0-2_蟇_豕__ts
  6
Continuous
 62
     7
100
AcDbLine
 10
343.0379973944099
 20
535.6172675493272
 30
0.0
 11
488.0000000000001
 21
535.6172675493272
 31
0.0
  0
LINE
  5
262
330
260
100
AcDbEntity
  8
_0-d__0-2_蟇_豕__ts
  6
Continuous
 62
     7
100
AcDbLine
 10
343.0379973944099
 20
1029.617267549327
 30
0.0
 11
488.0
 21
1029.617267549327
 31
0.0
  0
LINE
  5
263
330
260
100
AcDbEntity
  8
_0-d__0-2_蟇_豕__ts
  6
Continuous
 62
     7
100
AcDbLine
 10
478.0000000000001
 20
541.6169013383897
 30
0.0
 11
478.0
 21
1023.617633760265
 31
0.0
  0
INSERT
  5
264
330
260
100
AcDbEntity
  8
_0-d__0-2_蟇_豕__ts
100
AcDbBlockReference
  2
-020-VW_EMPTYBALL
 10
478.0000000000001
 20
535.6172675493272
 30
0.0
 41
5.9996337890625
 42
5.9996337890625
 50
270.0
  0
INSERT
  5
265
330
260
100
AcDbEntity
  8
_0-d__0-2_蟇_豕__ts
100
AcDbBlockReference
  2
-020-VW_EMPTYBALL
 10
478.0
 20
1029.617267549327
 30
0.0
 41
5.9996337890625
 42
5.9996337890625
 50
90.00000000000003
  0
TEXT
  5
266
330
260
100
AcDbEntity
  8
_0-d__0-2_蟇_豕__ts
 62
     7
100
AcDbText
 10
473.0
 20
764.3393134477645
 30
0.0
 40
24.37060546875
  1
494
 50
90.0
100
AcDbText
  0
POINT
  5
267
330
260
100
AcDbEntity
  8
_0-c__0-3_Defpoints
 62
     7
100
AcDbPoint
 10
333.0379973944099
 20
535.6172675493272
 30
0.0
  0
POINT
  5
268
330
260
100
AcDbEntity
  8
_0-c__0-3_Defpoints
 62
     7
100
AcDbPoint
 10
333.0379973944099
 20
1029.617267549327
 30
0.0
  0
POINT
  5
269
330
260
100
AcDbEntity
  8
_0-c__0-3_Defpoints
 62
     7
100
AcDbPoint
 10
478.0
 20
1029.617267549327
 30
0.0
  0
ENDBLK
  5
26A
330
260
100
AcDbEntity
  8
0
100
AcDbBlockEnd
  0
BLOCK
  5
26B
330
26C
100
AcDbEntity
  8
0
100
AcDbBlockBegin
  2
-041-繧_繝_繝_繝__24-1
 70
     0
 10
0.0
 20
0.0
 30
0.0
  3
-041-繧_繝_繝_繝__24-1
  1

  0
LINE
  5
26D
330
26C
100
AcDbEntity
  8
_0-1_荳_闊_
  6
Continuous
 62
     7
100
AcDbLine
 10
-19.72609481242432
 20
-628.6804635817129
 30
0.0
 11
280.2739051875757
 21
-628.6804635817129
 31
0.0
  0
LINE
  5
26E
330
26C
100
AcDbEntity
  8
_0-1_荳_闊_
  6
Continuous
 62
     7
100
AcDbLine
 10
280.2739051875757
 20
-628.6804635817129
 30
0.0
 11
280.2739051875757
 21
-928.680463581713
 31
0.0
  0
LINE
  5
26F
330
26C
100
AcDbEntity
  8
_0-1_荳_闊_
  6
Continuous
 62
     7
100
AcDbLine
 10
280.2739051875757
 20
-928.680463581713
 30
0.0
 11
-19.72609481242432
 21
-928.680463581713
 31
0.0
  0
LINE
  5
270
330
26C
100
AcDbEntity
  8
_0-1_荳_闊_
  6
Continuous
 62
     7
100
AcDbLine
 10
-19.72609481242432
 20
-928.680463581713
 30
0.0
 11
-19.72609481242432
 21
-628.6804635817129
 31
0.0
  0
LINE
  5
271
330
26C
100
AcDbEntity
  8
_0-1_荳_闊_
  6
Continuous
 62
     7
100
AcDbLine
 10
-44.72609481242431
 20
-928.6804635817125
 30
0.0
 11
305.2739051875757
 21
-928.6804635817125
 31
0.0
  0
LINE
  5
272
330
26C
100
AcDbEntity
  8
_0-1_荳_闊_
  6
Continuous
 62
     7
100
AcDbLine
 10
305.2739051875757
 20
-928.6804635817125
 30
0.0
 11
305.2739051875757
 21
-978.6804635817125
 31
0.0
  0
LINE
  5
273
330
26C
100
AcDbEntity
  8
_0-1_荳_闊_
  6
Continuous
 62
     7
100
AcDbLine
 10
305.2739051875757
 20
-978.6804635817125
 30
0.0
 11
-44.72609481242431
 21
-978.6804635817125
 31
0.0
  0
LINE
  5
274
330
26C
100
AcDbEntity
  8
_0-1_荳_闊_
  6
Continuous
 62
     7
100
AcDbLine
 10
-44.72609481242431
 20
-978.6804635817125
 30
0.0
 11
-44.72609481242431
 21
-928.6804635817125
 31
0.0
  0
LINE
  5
275
330
26C
100
AcDbEntity
  8
_0-1_荳_闊_
  6
Continuous
 62
     7
100
AcDbLine
 10
-32.10138389837027
 20
-978.6804635817125
 30
0.0
 11
-3.23387043889204
 21
-928.680463581713
 31
0.0
  0
LINE
  5
276
330
26C
100
AcDbEntity
  8
_0-1_荳_闊_
  6
Continuous
 62
     7
100
AcDbLine
 10
-5.83606609852211
 20
-933.1875986754276
 30
0.0
 11
-10.34320119223696
 21
-928.680463581713
 31
0.0
  0
LINE
  5
277
330
26C
100
AcDbEntity
  8
_0-1_荳_闊_
  6
Continuous
 62
     7
100
AcDbLine
 10
-24.99205314502535
 20
-978.6804635817125
 30
0.0
 11
-29.4991882387402
 21
-974.1733284879977
 31
0.0
  0
LINE
  5
278
330
26C
100
AcDbEntity
  8
_0-1_荳_闊_
  6
Continuous
 62
     7
100
AcDbLine
 10
18.33834698949761
 20
-978.6804635817125
 30
0.0
 11
47.20586044897584
 21
-928.680463581713
 31
0.0
  0
LINE
  5
279
330
26C
100
AcDbEntity
  8
_0-1_荳_闊_
  6
Continuous
 62
     7
100
AcDbLine
 10
44.60366478934576
 20
-933.1875986754276
 30
0.0
 11
40.09652969563092
 21
-928.680463581713
 31
0.0
  0
LINE
  5
27A
330
26C
100
AcDbEntity
  8
_0-1_荳_闊_
  6
Continuous
 62
     7
100
AcDbLine
 10
25.44767774284253
 20
-978.6804635817125
 30
0.0
 11
20.94054264912768
 21
-974.1733284879977
 31
0.0
  0
LINE
  5
27B
330
26C
100
AcDbEntity
  8
_0-1_荳_闊_
  6
Continuous
 62
     7
100
AcDbLine
 10
68.77807787736549
 20
-978.6804635817125
 30
0.0
 11
97.64559133684372
 21
-928.680463581713
 31
0.0
  0
LINE
  5
27C
330
26C
100
AcDbEntity
  8
_0-1_荳_闊_
  6
Continuous
 62
     7
100
AcDbLine
 10
95.04339567721364
 20
-933.1875986754276
 30
0.0
 11
90.5362605834988
 21
-928.680463581713
 31
0.0
  0
LINE
  5
27D
330
26C
100
AcDbEntity
  8
_0-1_荳_闊_
  6
Continuous
 62
     7
100
AcDbLine
 10
75.88740863071041
 20
-978.6804635817125
 30
0.0
 11
71.38027353699555
 21
-974.1733284879977
 31
0.0
  0
LINE
  5
27E
330
26C
100
AcDbEntity
  8
_0-1_荳_闊_
  6
Continuous
 62
     7
100
AcDbLine
 10
119.2178087652334
 20
-978.6804635817125
 30
0.0
 11
148.0853222247116
 21
-928.680463581713
 31
0.0
  0
LINE
  5
27F
330
26C
100
AcDbEntity
  8
_0-1_荳_闊_
  6
Continuous
 62
     7
100
AcDbLine
 10
145.4831265650815
 20
-933.1875986754276
 30
0.0
 11
140.9759914713667
 21
-928.680463581713
 31
0.0
  0
LINE
  5
280
330
26C
100
AcDbEntity
  8
_0-1_荳_闊_
  6
Continuous
 62
     7
100
AcDbLine
 10
126.3271395185783
 20
-978.6804635817125
 30
0.0
 11
121.8200044248634
 21
-974.1733284879977
 31
0.0
  0
LINE
  5
281
330
26C
100
AcDbEntity
  8
_0-1_荳_闊_
  6
Continuous
 62
     7
100
AcDbLine
 10
169.6575396531013
 20
-978.6804635817125
 30
0.0
 11
198.5250531125794
 21
-928.680463581713
 31
0.0
  0
LINE
  5
282
330
26C
100
AcDbEntity
  8
_0-1_荳_闊_
  6
Continuous
 62
     7
100
AcDbLine
 10
195.9228574529493
 20
-933.1875986754276
 30
0.0
 11
191.4157223592347
 21
-928.680463581713
 31
0.0
  0
LINE
  5
283
330
26C
100
AcDbEntity
  8
_0-1_荳_闊_
  6
Continuous
 62
     7
100
AcDbLine
 10
176.7668704064464
 20
-978.6804635817125
 30
0.0
 11
172.2597353127313
 21
-974.1733284879977
 31
0.0
  0
LINE
  5
284
330
26C
100
AcDbEntity
  8
_0-1_荳_闊_
  6
Continuous
 62
     7
100
AcDbLine
 10
220.0972705409691
 20
-978.6804635817125
 30
0.0
 11
248.9647840004474
 21
-928.680463581713
 31
0.0
  0
LINE
  5
285
330
26C
100
AcDbEntity
  8
_0-1_荳_闊_
  6
Continuous
 62
     7
100
AcDbLine
 10
246.3625883408173
 20
-933.1875986754276
 30
0.0
 11
241.8554532471022
 21
-928.680463581713
 31
0.0
  0
LINE
  5
286
330
26C
100
AcDbEntity
  8
_0-1_荳_闊_
  6
Continuous
 62
     7
100
AcDbLine
 10
227.2066012943138
 20
-978.6804635817125
 30
0.0
 11
222.6994662005992
 21
-974.1733284879977
 31
0.0
  0
LINE
  5
287
330
26C
100
AcDbEntity
  8
_0-1_荳_闊_
  6
Continuous
 62
     7
100
AcDbLine
 10
270.537001428837
 20
-978.6804635817125
 30
0.0
 11
299.4045148883152
 21
-928.680463581713
 31
0.0
  0
LINE
  5
288
330
26C
100
AcDbEntity
  8
_0-1_荳_闊_
  6
Continuous
 62
     7
100
AcDbLine
 10
296.8023192286852
 20
-933.1875986754276
 30
0.0
 11
292.2951841349701
 21
-928.680463581713
 31
0.0
  0
LINE
  5
289
330
26C
100
AcDbEntity
  8
_0-1_荳_闊_
  6
Continuous
 62
     7
100
AcDbLine
 10
277.6463321821817
 20
-978.6804635817125
 30
0.0
 11
273.1391970884671
 21
-974.1733284879977
 31
0.0
  0
LINE
  5
28A
330
26C
100
AcDbEntity
  8
_0-1_荳_闊_
  6
Continuous
 62
     7
100
AcDbLine
 10
280.2739051875757
 20
-638.5964780358837
 30
0.0
 11
-10.07664077522179
 21
-928.9470239987281
 31
0.0
  0
LINE
  5
28B
330
26C
100
AcDbEntity
  8
_0-1_荳_闊_
  6
Continuous
 62
     7
100
AcDbLine
 10
-28.83664922071046
 20
-928.6804635817125
 30
0.0
 11
-29.10320963772585
 21
-928.9470239987281
 31
0.0
  0
LINE
  5
28C
330
26C
100
AcDbEntity
  8
_0-1_荳_闊_
  6
Continuous
 62
     7
100
AcDbLine
 10
280.2739051875757
 20
-653.5947382361599
 30
0.0
 11
4.921619425051972
 21
-928.9470239987281
 31
0.0
  0
LINE
  5
28D
330
26C
100
AcDbEntity
  8
_0-1_荳_闊_
  6
Continuous
 62
     7
100
AcDbLine
 10
280.2739051875757
 20
-668.5929984364362
 30
0.0
 11
19.91987962532596
 21
-928.9470239987281
 31
0.0
  0
ENDBLK
  5
28E
330
26C
100
AcDbEntity
  8
0
100
AcDbBlockEnd
  0
BLOCK
  5
28F
330
290
100
AcDbEntity
  8
0
100
AcDbBlockBegin
  2
-042-繧_繝_繝_繝__25-1
 70
     0
 10
0.0
 20
0.0
 30
0.0
  3
-042-繧_繝_繝_繝__25-1
  1

  0
LINE
  5
291
330
290
100
AcDbEntity
  8
_0-1_荳_闊_
  6
Continuous
 62
     7
100
AcDbLine
 10
-1274.688097418014
 20
-604.4126858039352
 30
0.0
 11
-1264.688097418014
 21
-604.4126858039352
 31
0.0
  0
LINE
  5
292
330
290
100
AcDbEntity
  8
_0-1_荳_闊_
  6
Continuous
 62
     7
100
AcDbLine
 10
-1264.688097418014
 20
-604.4126858039352
 30
0.0
 11
-1264.688097418014
 21
-664.4126858039352
 31
0.0
  0
LINE
  5
293
330
290
100
AcDbEntity
  8
_0-1_荳_闊_
  6
Continuous
 62
     7
100
AcDbLine
 10
-1264.688097418014
 20
-664.4126858039352
 30
0.0
 11
-1274.688097418014
 21
-664.4126858039352
 31
0.0
  0
LINE
  5
294
330
290
100
AcDbEntity
  8
_0-1_荳_闊_
  6
Continuous
 62
     7
100
AcDbLine
 10
-1274.688097418014
 20
-664.4126858039352
 30
0.0
 11
-1274.688097418014
 21
-604.4126858039352
 31
0.0
  0
LINE
  5
295
330
290
100
AcDbEntity
  8
_0-1_荳_闊_
  6
Continuous
 62
     7
100
AcDbLine
 10
-1278.688097418014
 20
-611.6804635817129
 30
0.0
 11
-1260.688097418014
 21
-611.6804635817129
 31
0.0
  0
LINE
  5
296
330
290
100
AcDbEntity
  8
_0-1_荳_闊_
  6
Continuous
 62
     7
100
AcDbLine
 10
-1260.688097418014
 20
-611.6804635817129
 30
0.0
 11
-1260.688097418014
 21
-619.6804635817129
 31
0.0
  0
LINE
  5
297
330
290
100
AcDbEntity
  8
_0-1_荳_闊_
  6
Continuous
 62
     7
100
AcDbLine
 10
-1260.688097418014
 20
-619.6804635817129
 30
0.0
 11
-1278.688097418014
 21
-619.6804635817129
 31
0.0
  0
LINE
  5
298
330
290
100
AcDbEntity
  8
_0-1_荳_闊_
  6
Continuous
 62
     7
100
AcDbLine
 10
-1278.688097418014
 20
-619.6804635817129
 30
0.0
 11
-1278.688097418014
 21
-611.6804635817129
 31
0.0
  0
ENDBLK
  5
299
330
290
100
AcDbEntity
  8
0
100
AcDbBlockEnd
  0
BLOCK
  5
29A
330
29B
100
AcDbEntity
  8
0
100
AcDbBlockBegin
  2
-043-繧_繝_繝_繝__26-1
 70
     0
 10
0.0
 20
0.0
 30
0.0
  3
-043-繧_繝_繝_繝__26-1
  1

  0
LINE
  5
29C
330
29B
100
AcDbEntity
  8
_0-1_荳_闊_
  6
Continuous
 62
     7
100
AcDbLine
 10
-1419.688097418014
 20
-628.6804635817129
 30
0.0
 11
-1119.688097418014
 21
-628.6804635817129
 31
0.0
  0
LINE
  5
29D
330
29B
100
AcDbEntity
  8
_0-1_荳_闊_
  6
Continuous
 62
     7
100
AcDbLine
 10
-1119.688097418014
 20
-628.6804635817129
 30
0.0
 11
-1119.688097418014
 21
-928.680463581713
 31
0.0
  0
LINE
  5
29E
330
29B
100
AcDbEntity
  8
_0-1_荳_闊_
  6
Continuous
 62
     7
100
AcDbLine
 10
-1119.688097418014
 20
-928.680463581713
 30
0.0
 11
-1419.688097418014
 21
-928.680463581713
 31
0.0
  0
LINE
  5
29F
330
29B
100
AcDbEntity
  8
_0-1_荳_闊_
  6
Continuous
 62
     7
100
AcDbLine
 10
-1419.688097418014
 20
-928.680463581713
 30
0.0
 11
-1419.688097418014
 21
-628.6804635817129
 31
0.0
  0
LINE
  5
2A0
330
29B
100
AcDbEntity
  8
_0-1_荳_闊_
  6
Continuous
 62
     7
100
AcDbLine
 10
-1444.688097418014
 20
-928.6804635817125
 30
0.0
 11
-1094.688097418014
 21
-928.6804635817125
 31
0.0
  0
LINE
  5
2A1
330
29B
100
AcDbEntity
  8
_0-1_荳_闊_
  6
Continuous
 62
     7
100
AcDbLine
 10
-1094.688097418014
 20
-928.6804635817125
 30
0.0
 11
-1094.688097418014
 21
-978.6804635817125
 31
0.0
  0
LINE
  5
2A2
330
29B
100
AcDbEntity
  8
_0-1_荳_闊_
  6
Continuous
 62
     7
100
AcDbLine
 10
-1094.688097418014
 20
-978.6804635817125
 30
0.0
 11
-1444.688097418014
 21
-978.6804635817125
 31
0.0
  0
LINE
  5
2A3
330
29B
100
AcDbEntity
  8
_0-1_荳_闊_
  6
Continuous
 62
     7
100
AcDbLine
 10
-1444.688097418014
 20
-978.6804635817125
 30
0.0
 11
-1444.688097418014
 21
-928.6804635817125
 31
0.0
  0
LINE
  5
2A4
330
29B
100
AcDbEntity
  8
_0-1_荳_闊_
  6
Continuous
 62
     7
100
AcDbLine
 10
-1432.06338650396
 20
-978.6804635817125
 30
0.0
 11
-1403.195873044482
 21
-928.680463581713
 31
0.0
  0
LINE
  5
2A5
330
29B
100
AcDbEntity
  8
_0-1_荳_闊_
  6
Continuous
 62
     7
100
AcDbLine
 10
-1405.798068704112
 20
-933.1875986754276
 30
0.0
 11
-1410.305203797827
 21
-928.680463581713
 31
0.0
  0
LINE
  5
2A6
330
29B
100
AcDbEntity
  8
_0-1_荳_闊_
  6
Continuous
 62
     7
100
AcDbLine
 10
-1424.954055750616
 20
-978.6804635817125
 30
0.0
 11
-1429.46119084433
 21
-974.1733284879977
 31
0.0
  0
LINE
  5
2A7
330
29B
100
AcDbEntity
  8
_0-1_荳_闊_
  6
Continuous
 62
     7
100
AcDbLine
 10
-1381.623655616092
 20
-978.6804635817125
 30
0.0
 11
-1352.756142156614
 21
-928.680463581713
 31
0.0
  0
LINE
  5
2A8
330
29B
100
AcDbEntity
  8
_0-1_荳_闊_
  6
Continuous
 62
     7
100
AcDbLine
 10
-1355.358337816244
 20
-933.1875986754276
 30
0.0
 11
-1359.865472909959
 21
-928.680463581713
 31
0.0
  0
LINE
  5
2A9
330
29B
100
AcDbEntity
  8
_0-1_荳_闊_
  6
Continuous
 62
     7
100
AcDbLine
 10
-1374.514324862748
 20
-978.6804635817125
 30
0.0
 11
-1379.021459956462
 21
-974.1733284879977
 31
0.0
  0
LINE
  5
2AA
330
29B
100
AcDbEntity
  8
_0-1_荳_闊_
  6
Continuous
 62
     7
100
AcDbLine
 10
-1331.183924728225
 20
-978.6804635817125
 30
0.0
 11
-1302.316411268746
 21
-928.680463581713
 31
0.0
  0
LINE
  5
2AB
330
29B
100
AcDbEntity
  8
_0-1_荳_闊_
  6
Continuous
 62
     7
100
AcDbLine
 10
-1304.918606928376
 20
-933.1875986754276
 30
0.0
 11
-1309.425742022092
 21
-928.680463581713
 31
0.0
  0
LINE
  5
2AC
330
29B
100
AcDbEntity
  8
_0-1_荳_闊_
  6
Continuous
 62
     7
100
AcDbLine
 10
-1324.07459397488
 20
-978.6804635817125
 30
0.0
 11
-1328.581729068595
 21
-974.1733284879977
 31
0.0
  0
LINE
  5
2AD
330
29B
100
AcDbEntity
  8
_0-1_荳_闊_
  6
Continuous
 62
     7
100
AcDbLine
 10
-1280.744193840357
 20
-978.6804635817125
 30
0.0
 11
-1251.876680380878
 21
-928.680463581713
 31
0.0
  0
LINE
  5
2AE
330
29B
100
AcDbEntity
  8
_0-1_荳_闊_
  6
Continuous
 62
     7
100
AcDbLine
 10
-1254.478876040509
 20
-933.1875986754276
 30
0.0
 11
-1258.986011134224
 21
-928.680463581713
 31
0.0
  0
LINE
  5
2AF
330
29B
100
AcDbEntity
  8
_0-1_荳_闊_
  6
Continuous
 62
     7
100
AcDbLine
 10
-1273.634863087012
 20
-978.6804635817125
 30
0.0
 11
-1278.141998180727
 21
-974.1733284879977
 31
0.0
  0
LINE
  5
2B0
330
29B
100
AcDbEntity
  8
_0-1_荳_闊_
  6
Continuous
 62
     7
100
AcDbLine
 10
-1230.304462952489
 20
-978.6804635817125
 30
0.0
 11
-1201.436949493011
 21
-928.680463581713
 31
0.0
  0
LINE
  5
2B1
330
29B
100
AcDbEntity
  8
_0-1_荳_闊_
  6
Continuous
 62
     7
100
AcDbLine
 10
-1204.039145152641
 20
-933.1875986754276
 30
0.0
 11
-1208.546280246355
 21
-928.680463581713
 31
0.0
  0
LINE
  5
2B2
330
29B
100
AcDbEntity
  8
_0-1_荳_闊_
  6
Continuous
 62
     7
100
AcDbLine
 10
-1223.195132199144
 20
-978.6804635817125
 30
0.0
 11
-1227.702267292859
 21
-974.1733284879977
 31
0.0
  0
LINE
  5
2B3
330
29B
100
AcDbEntity
  8
_0-1_荳_闊_
  6
Continuous
 62
     7
100
AcDbLine
 10
-1179.864732064621
 20
-978.6804635817125
 30
0.0
 11
-1150.997218605143
 21
-928.680463581713
 31
0.0
  0
LINE
  5
2B4
330
29B
100
AcDbEntity
  8
_0-1_荳_闊_
  6
Continuous
 62
     7
100
AcDbLine
 10
-1153.599414264773
 20
-933.1875986754276
 30
0.0
 11
-1158.106549358488
 21
-928.680463581713
 31
0.0
  0
LINE
  5
2B5
330
29B
100
AcDbEntity
  8
_0-1_荳_闊_
  6
Continuous
 62
     7
100
AcDbLine
 10
-1172.755401311276
 20
-978.6804635817125
 30
0.0
 11
-1177.262536404991
 21
-974.1733284879977
 31
0.0
  0
LINE
  5
2B6
330
29B
100
AcDbEntity
  8
_0-1_荳_闊_
  6
Continuous
 62
     7
100
AcDbLine
 10
-1129.425001176753
 20
-978.6804635817125
 30
0.0
 11
-1100.557487717275
 21
-928.680463581713
 31
0.0
  0
LINE
  5
2B7
330
29B
100
AcDbEntity
  8
_0-1_荳_闊_
  6
Continuous
 62
     7
100
AcDbLine
 10
-1103.159683376905
 20
-933.1875986754276
 30
0.0
 11
-1107.66681847062
 21
-928.680463581713
 31
0.0
  0
LINE
  5
2B8
330
29B
100
AcDbEntity
  8
_0-1_荳_闊_
  6
Continuous
 62
     7
100
AcDbLine
 10
-1122.315670423408
 20
-978.6804635817125
 30
0.0
 11
-1126.822805517123
 21
-974.1733284879977
 31
0.0
  0
LINE
  5
2B9
330
29B
100
AcDbEntity
  8
_0-1_荳_闊_
  6
Continuous
 62
     7
100
AcDbLine
 10
-1119.688097418014
 20
-638.5964780358837
 30
0.0
 11
-1410.038643380812
 21
-928.9470239987281
 31
0.0
  0
LINE
  5
2BA
330
29B
100
AcDbEntity
  8
_0-1_荳_闊_
  6
Continuous
 62
     7
100
AcDbLine
 10
-1428.798651826301
 20
-928.6804635817125
 30
0.0
 11
-1429.065212243316
 21
-928.9470239987281
 31
0.0
  0
LINE
  5
2BB
330
29B
100
AcDbEntity
  8
_0-1_荳_闊_
  6
Continuous
 62
     7
100
AcDbLine
 10
-1119.688097418014
 20
-653.5947382361599
 30
0.0
 11
-1395.040383180538
 21
-928.9470239987281
 31
0.0
  0
LINE
  5
2BC
330
29B
100
AcDbEntity
  8
_0-1_荳_闊_
  6
Continuous
 62
     7
100
AcDbLine
 10
-1119.688097418014
 20
-668.5929984364362
 30
0.0
 11
-1380.042122980264
 21
-928.9470239987281
 31
0.0
  0
ENDBLK
  5
2BD
330
29B
100
AcDbEntity
  8
0
100
AcDbBlockEnd
  0
BLOCK
  5
2BE
330
2BF
100
AcDbEntity
  8
0
100
AcDbBlockBegin
  2
-044-_D44
 70
     0
 10
0.0
 20
0.0
 30
0.0
  3
-044-_D44
  1

  0
LINE
  5
2C0
330
2BF
100
AcDbEntity
  8
_0-d__0-2_蟇_豕__ts
  6
Continuous
 62
     7
100
AcDbLine
 10
-1117.92400521118
 20
-935.7555072941819
 30
0.0
 11
-1117.92400521118
 21
-1076.0
 31
0.0
  0
LINE
  5
2C1
330
2BF
100
AcDbEntity
  8
_0-e__0-2_蟇_豕___25-1
  6
Continuous
 62
     7
100
AcDbLine
 10
-1417.92400521118
 20
-935.7555072941819
 30
0.0
 11
-1417.92400521118
 21
-1076.0
 31
0.0
  0
LINE
  5
2C2
330
2BF
100
AcDbEntity
  8
_0-d__0-2_蟇_豕__ts
  6
Continuous
 62
     7
100
AcDbLine
 10
-1123.923639000243
 20
-1066.0
 30
0.0
 11
-1411.924371422118
 21
-1066.0
 31
0.0
  0
INSERT
  5
2C3
330
2BF
100
AcDbEntity
  8
_0-2_蟇_豕__
100
AcDbBlockReference
  2
-020-VW_EMPTYBALL
 10
-1117.92400521118
 20
-1066.0
 30
0.0
 41
5.9996337890625
 42
5.9996337890625
  0
INSERT
  5
2C4
330
2BF
100
AcDbEntity
  8
_0-e__0-2_蟇_豕___25-1
100
AcDbBlockReference
  2
-020-VW_EMPTYBALL
 10
-1417.92400521118
 20
-1066.0
 30
0.0
 41
5.9996337890625
 42
5.9996337890625
 50
180.0
  0
TEXT
  5
2C5
330
2BF
100
AcDbEntity
  8
_0-e__0-2_蟇_豕___25-1
 62
     7
100
AcDbText
 10
-1286.201959312742
 20
-1061.0
 30
0.0
 40
24.37060546875
  1
300
100
AcDbText
  0
POINT
  5
2C6
330
2BF
100
AcDbEntity
  8
_0-c__0-3_Defpoints
 62
     7
100
AcDbPoint
 10
-1117.92400521118
 20
-925.7555072941819
 30
0.0
  0
POINT
  5
2C7
330
2BF
100
AcDbEntity
  8
_0-c__0-3_Defpoints
 62
     7
100
AcDbPoint
 10
-1417.92400521118
 20
-925.7555072941819
 30
0.0
  0
POINT
  5
2C8
330
2BF
100
AcDbEntity
  8
_0-c__0-3_Defpoints
 62
     7
100
AcDbPoint
 10
-1417.92400521118
 20
-1066.0
 30
0.0
  0
ENDBLK
  5
2C9
330
2BF
100
AcDbEntity
  8
0
100
AcDbBlockEnd
  0
BLOCK
  5
2CA
330
2CB
100
AcDbEntity
  8
0
100
AcDbBlockBegin
  2
-045-_D45
 70
     0
 10
0.0
 20
0.0
 30
0.0
  3
-045-_D45
  1

  0
LINE
  5
2CC
330
2CB
100
AcDbEntity
  8
_0-d__0-2_蟇_豕__ts
  6
Continuous
 62
     7
100
AcDbLine
 10
-17.96200260559001
 20
-935.7555072941819
 30
0.0
 11
-17.96200260558999
 21
-1076.0
 31
0.0
  0
LINE
  5
2CD
330
2CB
100
AcDbEntity
  8
_0-d__0-2_蟇_豕__ts
  6
Continuous
 62
     7
100
AcDbLine
 10
-1117.92400521118
 20
-935.7555072941819
 30
0.0
 11
-1117.92400521118
 21
-1076.0
 31
0.0
  0
LINE
  5
2CE
330
2CB
100
AcDbEntity
  8
_0-d__0-2_蟇_豕__ts
  6
Continuous
 62
     7
100
AcDbLine
 10
-23.9616363946525
 20
-1066.0
 30
0.0
 11
-1111.924371422118
 21
-1066.0
 31
0.0
  0
INSERT
  5
2CF
330
2CB
100
AcDbEntity
  8
_0-d__0-2_蟇_豕__ts
100
AcDbBlockReference
  2
-020-VW_EMPTYBALL
 10
-17.96200260558999
 20
-1066.0
 30
0.0
 41
5.9996337890625
 42
5.9996337890625
  0
INSERT
  5
2D0
330
2CB
100
AcDbEntity
  8
_0-d__0-2_蟇_豕__ts
100
AcDbBlockReference
  2
-020-VW_EMPTYBALL
 10
-1117.92400521118
 20
-1066.0
 30
0.0
 41
5.9996337890625
 42
5.9996337890625
 50
180.0
  0
TEXT
  5
2D1
330
2CB
100
AcDbEntity
  8
_0-d__0-2_蟇_豕__ts
 62
     7
100
AcDbText
 10
-592.3136093771351
 20
-1061.0
 30
0.0
 40
24.37060546875
  1
1100
100
AcDbText
  0
POINT
  5
2D2
330
2CB
100
AcDbEntity
  8
_0-c__0-3_Defpoints
 62
     7
100
AcDbPoint
 10
-17.96200260559001
 20
-925.7555072941819
 30
0.0
  0
POINT
  5
2D3
330
2CB
100
AcDbEntity
  8
_0-c__0-3_Defpoints
 62
     7
100
AcDbPoint
 10
-1117.92400521118
 20
-925.7555072941819
 30
0.0
  0
POINT
  5
2D4
330
2CB
100
AcDbEntity
  8
_0-c__0-3_Defpoints
 62
     7
100
AcDbPoint
 10
-1117.92400521118
 20
-1066.0
 30
0.0
  0
ENDBLK
  5
2D5
330
2CB
100
AcDbEntity
  8
0
100
AcDbBlockEnd
  0
BLOCK
  5
2D6
330
2D7
100
AcDbEntity
  8
0
100
AcDbBlockBegin
  2
-046-_D46
 70
     0
 10
0.0
 20
0.0
 30
0.0
  3
-046-_D46
  1

  0
LINE
  5
2D8
330
2D7
100
AcDbEntity
  8
_0-d__0-2_蟇_豕__ts
  6
Continuous
 62
     7
100
AcDbLine
 10
282.03799739441
 20
-935.7555072941819
 30
0.0
 11
282.03799739441
 21
-1076.0
 31
0.0
  0
LINE
  5
2D9
330
2D7
100
AcDbEntity
  8
_0-d__0-2_蟇_豕__ts
  6
Continuous
 62
     7
100
AcDbLine
 10
-17.96200260559001
 20
-935.7555072941819
 30
0.0
 11
-17.96200260559001
 21
-1076.0
 31
0.0
  0
LINE
  5
2DA
330
2D7
100
AcDbEntity
  8
_0-d__0-2_蟇_豕__ts
  6
Continuous
 62
     7
100
AcDbLine
 10
276.0383636053475
 20
-1066.0
 30
0.0
 11
-11.96236881652751
 21
-1066.0
 31
0.0
  0
INSERT
  5
2DB
330
2D7
100
AcDbEntity
  8
_0-d__0-2_蟇_豕__ts
100
AcDbBlockReference
  2
-020-VW_EMPTYBALL
 10
282.03799739441
 20
-1066.0
 30
0.0
 41
5.9996337890625
 42
5.9996337890625
  0
INSERT
  5
2DC
330
2D7
100
AcDbEntity
  8
_0-d__0-2_蟇_豕__ts
100
AcDbBlockReference
  2
-020-VW_EMPTYBALL
 10
-17.96200260559001
 20
-1066.0
 30
0.0
 41
5.9996337890625
 42
5.9996337890625
 50
180.0
  0
TEXT
  5
2DD
330
2D7
100
AcDbEntity
  8
_0-2_蟇_豕__
 62
     7
100
AcDbText
 10
113.7600432928475
 20
-1061.0
 30
0.0
 40
24.37060546875
  1
300
100
AcDbText
  0
POINT
  5
2DE
330
2D7
100
AcDbEntity
  8
_0-c__0-3_Defpoints
 62
     7
100
AcDbPoint
 10
282.03799739441
 20
-925.7555072941819
 30
0.0
  0
POINT
  5
2DF
330
2D7
100
AcDbEntity
  8
_0-c__0-3_Defpoints
 62
     7
100
AcDbPoint
 10
-17.96200260559001
 20
-925.7555072941819
 30
0.0
  0
POINT
  5
2E0
330
2D7
100
AcDbEntity
  8
_0-c__0-3_Defpoints
 62
     7
100
AcDbPoint
 10
-17.96200260559001
 20
-1066.0
 30
0.0
  0
ENDBLK
  5
2E1
330
2D7
100
AcDbEntity
  8
0
100
AcDbBlockEnd
  0
BLOCK
  5
2E2
330
2E3
100
AcDbEntity
  8
0
100
AcDbBlockBegin
  2
-047-_D47
 70
     0
 10
0.0
 20
0.0
 30
0.0
  3
-047-_D47
  1

  0
LINE
  5
2E4
330
2E3
100
AcDbEntity
  8
_0-d__0-2_蟇_豕__ts
  6
Continuous
 62
     7
100
AcDbLine
 10
1570.504533949787
 20
-935.3827324506728
 30
0.0
 11
1570.504533949787
 21
-1076.0
 31
0.0
  0
LINE
  5
2E5
330
2E3
100
AcDbEntity
  8
_0-d__0-2_蟇_豕__ts
  6
Continuous
 62
     7
100
AcDbLine
 10
1070.504533949787
 20
-935.3827324506728
 30
0.0
 11
1070.504533949787
 21
-1076.0
 31
0.0
  0
LINE
  5
2E6
330
2E3
100
AcDbEntity
  8
_0-d__0-2_蟇_豕__ts
  6
Continuous
 62
     7
100
AcDbLine
 10
1564.504900160725
 20
-1066.0
 30
0.0
 11
1076.50416773885
 21
-1066.0
 31
0.0
  0
INSERT
  5
2E7
330
2E3
100
AcDbEntity
  8
_0-d__0-2_蟇_豕__ts
100
AcDbBlockReference
  2
-020-VW_EMPTYBALL
 10
1570.504533949787
 20
-1066.0
 30
0.0
 41
5.9996337890625
 42
5.9996337890625
  0
INSERT
  5
2E8
330
2E3
100
AcDbEntity
  8
_0-d__0-2_蟇_豕__ts
100
AcDbBlockReference
  2
-020-VW_EMPTYBALL
 10
1070.504533949787
 20
-1066.0
 30
0.0
 41
5.9996337890625
 42
5.9996337890625
 50
180.0
  0
TEXT
  5
2E9
330
2E3
100
AcDbEntity
  8
_0-2_蟇_豕__
 62
     7
100
AcDbText
 10
1302.226579848224
 20
-1057.469052734375
 30
0.0
 40
24.37060546875
  1
500
100
AcDbText
  0
POINT
  5
2EA
330
2E3
100
AcDbEntity
  8
_0-c__0-3_Defpoints
 62
     7
100
AcDbPoint
 10
1570.504533949787
 20
-925.3827324506728
 30
0.0
  0
POINT
  5
2EB
330
2E3
100
AcDbEntity
  8
_0-c__0-3_Defpoints
 62
     7
100
AcDbPoint
 10
1070.504533949787
 20
-925.3827324506728
 30
0.0
  0
POINT
  5
2EC
330
2E3
100
AcDbEntity
  8
_0-c__0-3_Defpoints
 62
     7
100
AcDbPoint
 10
1070.504533949787
 20
-1066.0
 30
0.0
  0
ENDBLK
  5
2ED
330
2E3
100
AcDbEntity
  8
0
100
AcDbBlockEnd
  0
BLOCK
  5
2EE
330
2EF
100
AcDbEntity
  8
0
100
AcDbBlockBegin
  2
-049-繧_繝_繝_繝__28-1
 70
     0
 10
0.0
 20
0.0
 30
0.0
  3
-049-繧_繝_繝_繝__28-1
  1

  0
LINE
  5
2F0
330
2EF
100
AcDbEntity
  8
_0-1_荳_闊_
  6
Continuous
 62
     7
100
AcDbLine
 10
80.35953496053375
 20
-101.9295547001866
 30
0.0
 11
80.25891435241488
 21
-604.9549064967518
 31
0.0
  0
ARC
  5
2F1
330
2EF
100
AcDbEntity
  8
_0-1_荳_闊_
  6
Continuous
 62
     7
100
AcDbCircle
 10
65.25891463456924
 20
-604.951997093023
 30
0.0
 40
15.00000000000011
100
AcDbArc
 50
270.0
 51
359.9888868962929
  0
LINE
  5
2F2
330
2EF
100
AcDbEntity
  8
_0-1_荳_闊_
  6
Continuous
 62
     7
100
AcDbLine
 10
180.2374346351692
 20
-101.7968887382037
 30
0.0
 11
180.3350015592811
 21
-604.8222405347689
 31
0.0
  0
ARC
  5
2F3
330
2EF
100
AcDbEntity
  8
_0-1_荳_闊_
  6
Continuous
 62
     7
100
AcDbCircle
 10
195.2359075110113
 20
-604.924956287531
 30
0.0
 40
14.99999999999998
100
AcDbArc
 50
180.011113103707
 51
270.0
  0
ENDBLK
  5
2F4
330
2EF
100
AcDbEntity
  8
0
100
AcDbBlockEnd
  0
BLOCK
  5
2F5
330
2F6
100
AcDbEntity
  8
0
100
AcDbBlockBegin
  2
-050-繧_繝_繝_繝__29-1
 70
     0
 10
0.0
 20
0.0
 30
0.0
  3
-050-繧_繝_繝_繝__29-1
  1

  0
LINE
  5
2F7
330
2F6
100
AcDbEntity
  8
_0-1_荳_闊_
  6
Continuous
 62
     7
100
AcDbLine
 10
-1319.686596307934
 20
-101.9295547001866
 30
0.0
 11
-1319.787216916053
 21
-604.9549064967518
 31
0.0
  0
ARC
  5
2F8
330
2F6
100
AcDbEntity
  8
_0-1_荳_闊_
  6
Continuous
 62
     7
100
AcDbCircle
 10
-1334.787216633899
 20
-604.951997093023
 30
0.0
 40
15.00000000000011
100
AcDbArc
 50
270.0
 51
359.9888868962929
  0
LINE
  5
2F9
330
2F6
100
AcDbEntity
  8
_0-1_荳_闊_
  6
Continuous
 62
     7
100
AcDbLine
 10
-1219.808696633299
 20
-101.7968887382037
 30
0.0
 11
-1219.711129709187
 21
-604.8222405347689
 31
0.0
  0
ARC
  5
2FA
330
2F6
100
AcDbEntity
  8
_0-1_荳_闊_
  6
Continuous
 62
     7
100
AcDbCircle
 10
-1204.810223757457
 20
-604.924956287531
 30
0.0
 40
14.99999999999998
100
AcDbArc
 50
180.011113103707
 51
270.0
  0
ENDBLK
  5
2FB
330
2F6
100
AcDbEntity
  8
0
100
AcDbBlockEnd
  0
BLOCK
  5
2FC
330
2FD
100
AcDbEntity
  8
0
100
AcDbBlockBegin
  2
-051-繧_繝_繝_繝__30-1
 70
     0
 10
0.0
 20
0.0
 30
0.0
  3
-051-繧_繝_繝_繝__30-1
  1

  0
LINE
  5
2FE
330
2FD
100
AcDbEntity
  8
_0-d__0-2_蟇_豕__ts
  6
Continuous
 62
     7
100
AcDbLine
 10
1318.033905187576
 20
-58.30768873820375
 30
0.0
 11
1366.097660768861
 21
-59.84063415871336
 31
0.0
  0
CIRCLE
  5
2FF
330
2FD
100
AcDbEntity
  8
_0-d__0-2_蟇_豕__ts
  6
Continuous
 62
     7
100
AcDbCircle
 10
1366.033905187576
 20
-61.83961770688328
 30
0.0
 40
1.999999999999749
  0
LINE
  5
300
330
2FD
100
AcDbEntity
  8
_0-d__0-2_蟇_豕__ts
  6
Continuous
 62
     7
100
AcDbLine
 10
1368.033905187576
 20
-61.83961770688352
 30
0.0
 11
1368.033905187576
 21
-70.0619887382038
 31
0.0
  0
LINE
  5
301
330
2FD
100
AcDbEntity
  8
_0-f__0-2_蟇_豕___29-1
  6
Continuous
 62
     7
100
AcDbLine
 10
1368.033905187576
 20
-70.0619887382038
 30
0.0
 11
1365.971005187575
 21
-72.12488873820371
 31
0.0
  0
LINE
  5
302
330
2FD
100
AcDbEntity
  8
_1-0__0-2_蟇_豕___30-1
  6
Continuous
 62
     7
100
AcDbLine
 10
1318.033905187576
 20
-58.30768873820375
 30
0.0
 11
1269.970149606291
 21
-59.84063415871336
 31
0.0
  0
CIRCLE
  5
303
330
2FD
100
AcDbEntity
  8
_0-d__0-2_蟇_豕__ts
  6
Continuous
 62
     7
100
AcDbCircle
 10
1270.033905187576
 20
-61.83961770688391
 30
0.0
 40
2.000000000000385
  0
LINE
  5
304
330
2FD
100
AcDbEntity
  8
_0-d__0-2_蟇_豕__ts
  6
Continuous
 62
     7
100
AcDbLine
 10
1268.033905187576
 20
-61.83961770688352
 30
0.0
 11
1268.033905187576
 21
-70.0619887382038
 31
0.0
  0
LINE
  5
305
330
2FD
100
AcDbEntity
  8
_0-d__0-2_蟇_豕__ts
  6
Continuous
 62
     7
100
AcDbLine
 10
1268.033905187576
 20
-70.0619887382038
 30
0.0
 11
1270.096805187576
 21
-72.12488873820371
 31
0.0
  0
LINE
  5
306
330
2FD
100
AcDbEntity
  8
_0-d__0-2_蟇_豕__ts
  6
Continuous
 62
     7
100
AcDbLine
 10
1270.133905187575
 20
-72.2576887382038
 30
0.0
 11
1310.333905187576
 21
-73.35248873820365
 31
0.0
  0
LINE
  5
307
330
2FD
100
AcDbEntity
  8
_0-d__0-2_蟇_豕__ts
  6
Continuous
 62
     7
100
AcDbLine
 10
1325.783905187576
 20
-176.2893887382038
 30
0.0
 11
1323.735005187576
 21
-178.3076887382038
 31
0.0
  0
LINE
  5
308
330
2FD
100
AcDbEntity
  8
_0-d__0-2_蟇_豕__ts
  6
Continuous
 62
     7
100
AcDbLine
 10
1310.446305187575
 20
-73.3576887382037
 30
0.0
 11
1310.333905187576
 21
-73.3576887382037
 31
0.0
  0
LINE
  5
309
330
2FD
100
AcDbEntity
  8
_0-d__0-2_蟇_豕__ts
  6
Continuous
 62
     7
100
AcDbLine
 10
1310.333905187576
 20
-73.3576887382037
 30
0.0
 11
1310.333905187576
 21
-176.2979887382036
 31
0.0
  0
LINE
  5
30A
330
2FD
100
AcDbEntity
  8
_0-d__0-2_蟇_豕__ts
  6
Continuous
 62
     7
100
AcDbLine
 10
1310.333905187576
 20
-176.2979887382036
 30
0.0
 11
1312.393905187575
 21
-178.2968887382037
 31
0.0
  0
LINE
  5
30B
330
2FD
100
AcDbEntity
  8
_0-d__0-2_蟇_豕__ts
  6
Continuous
 62
     7
100
AcDbLine
 10
1312.393905187575
 20
-178.2968887382037
 30
0.0
 11
1323.723905187575
 21
-178.2968887382037
 31
0.0
  0
LINE
  5
30C
330
2FD
100
AcDbEntity
  8
_1-1__0-2_蟇_豕___27-1
  6
Continuous
 62
     7
100
AcDbLine
 10
1323.723905187575
 20
-178.2968887382037
 30
0.0
 11
1323.735005187576
 21
-178.3076887382038
 31
0.0
  0
LINE
  5
30D
330
2FD
100
AcDbEntity
  8
_0-d__0-2_蟇_豕__ts
  6
Continuous
 62
     7
100
AcDbLine
 10
1325.771505187575
 20
-73.3576887382037
 30
0.0
 11
1325.783905187576
 21
-73.3576887382037
 31
0.0
  0
LINE
  5
30E
330
2FD
100
AcDbEntity
  8
_0-d__0-2_蟇_豕__ts
  6
Continuous
 62
     7
100
AcDbLine
 10
1325.783905187576
 20
-73.3576887382037
 30
0.0
 11
1325.783905187576
 21
-176.2893887382038
 31
0.0
  0
LINE
  5
30F
330
2FD
100
AcDbEntity
  8
_0-d__0-2_蟇_豕__ts
  6
Continuous
 62
     7
100
AcDbLine
 10
1325.779005187575
 20
-73.34458873820381
 30
0.0
 11
1366.033905187576
 21
-72.15768873820366
 31
0.0
  0
ENDBLK
  5
310
330
2FD
100
AcDbEntity
  8
0
100
AcDbBlockEnd
  0
ENDSEC
  0
SECTION
  2
ENTITIES
  0
TEXT
  5
311
330
1D
100
AcDbEntity
  8
_0-d__0-2_蟇_豕__ts
 62
     7
100
AcDbText
 10
1781.195383509168
 20
1288.27041274662
 30
0.0
 40
24.37060546875
  1
ステンシェルFT塗装
100
AcDbText
  0
INSERT
  5
312
330
1D
100
AcDbEntity
  8
_0-1_荳_闊_
100
AcDbBlockReference
  2
-000-繧_繝_繝_繝__1
 10
2034.055167287535
 20
1636.066261035768
 30
0.0
  0
LINE
  5
313
330
1D
100
AcDbEntity
  8
_0-d__0-2_蟇_豕__ts
  6
Continuous
 62
     7
100
AcDbLine
 10
664.4690724751101
 20
1534.280172297565
 30
0.0
 11
714.4690724751101
 21
1534.280172297565
 31
0.0
  0
LINE
  5
314
330
1D
100
AcDbEntity
  8
_0-d__0-2_蟇_豕__ts
  6
Continuous
 62
     7
100
AcDbLine
 10
714.4690724751101
 20
1534.280172297565
 30
0.0
 11
714.4690724751101
 21
1529.280172297565
 31
0.0
  0
LINE
  5
315
330
1D
100
AcDbEntity
  8
_1-2__0-2_蟇_豕___1
  6
Continuous
 62
     7
100
AcDbLine
 10
714.4690724751101
 20
1529.280172297565
 30
0.0
 11
664.4690724751101
 21
1529.280172297565
 31
0.0
  0
LINE
  5
316
330
1D
100
AcDbEntity
  8
_0-d__0-2_蟇_豕__ts
  6
Continuous
 62
     7
100
AcDbLine
 10
664.4690724751101
 20
1529.280172297565
 30
0.0
 11
664.4690724751101
 21
1534.280172297565
 31
0.0
  0
LINE
  5
317
330
1D
100
AcDbEntity
  8
_0-d__0-2_蟇_豕__ts
  6
Continuous
 62
     7
100
AcDbLine
 10
714.44017247511
 20
1459.369372297565
 30
0.0
 11
714.44017247511
 21
1529.280172297565
 31
0.0
  0
LINE
  5
318
330
1D
100
AcDbEntity
  8
_0-d__0-2_蟇_豕__ts
  6
Continuous
 62
     7
100
AcDbLine
 10
714.44017247511
 20
1529.280172297565
 30
0.0
 11
709.44017247511
 21
1529.280172297565
 31
0.0
  0
LINE
  5
319
330
1D
100
AcDbEntity
  8
_0-d__0-2_蟇_豕__ts
  6
Continuous
 62
     7
100
AcDbLine
 10
709.44017247511
 20
1529.280172297565
 30
0.0
 11
709.44017247511
 21
1459.369372297565
 31
0.0
  0
LINE
  5
31A
330
1D
100
AcDbEntity
  8
_0-d__0-2_蟇_豕__ts
  6
Continuous
 62
     7
100
AcDbLine
 10
709.44017247511
 20
1459.369372297565
 30
0.0
 11
714.44017247511
 21
1459.369372297565
 31
0.0
  0
LINE
  5
31B
330
1D
100
AcDbEntity
  8
_0-d__0-2_蟇_豕__ts
  6
Continuous
 62
     7
100
AcDbLine
 10
709.4690724751101
 20
1459.369372297565
 30
0.0
 11
709.4690724751101
 21
1529.280172297565
 31
0.0
  0
LINE
  5
31C
330
1D
100
AcDbEntity
  8
_0-d__0-2_蟇_豕__ts
  6
Continuous
 62
     7
100
AcDbLine
 10
709.4690724751101
 20
1529.280172297565
 30
0.0
 11
664.4690724751101
 21
1529.280172297565
 31
0.0
  0
LINE
  5
31D
330
1D
100
AcDbEntity
  8
_0-2_蟇_豕__
  6
Continuous
 62
     7
100
AcDbLine
 10
664.4690724751101
 20
1529.280172297565
 30
0.0
 11
664.4690724751101
 21
1459.369372297565
 31
0.0
  0
LINE
  5
31E
330
1D
100
AcDbEntity
  8
_0-2_蟇_豕__
  6
Continuous
 62
     7
100
AcDbLine
 10
664.4690724751101
 20
1459.369372297565
 30
0.0
 11
709.4690724751101
 21
1459.369372297565
 31
0.0
  0
INSERT
  5
31F
330
1D
100
AcDbEntity
  8
_0-1_荳_闊_
100
AcDbBlockReference
  2
-001-繧_繝_繝_繝__2-1
 10
2034.055167287535
 20
1636.066261035768
 30
0.0
  0
INSERT
  5
320
330
1D
100
AcDbEntity
  8
_0-1_荳_闊_
100
AcDbBlockReference
  2
-002-繧_繝_繝_繝__3-1
 10
2034.055167287535
 20
1636.066261035768
 30
0.0
  0
LINE
  5
321
330
1D
100
AcDbEntity
  8
_1-1__0-2_蟇_豕___27-1
  6
Continuous
 62
     7
100
AcDbLine
 10
2214.68907247511
 20
1534.269372297565
 30
0.0
 11
2264.68907247511
 21
1534.269372297565
 31
0.0
  0
LINE
  5
322
330
1D
100
AcDbEntity
  8
_0-d__0-2_蟇_豕__ts
  6
Continuous
 62
     7
100
AcDbLine
 10
2264.68907247511
 20
1534.269372297565
 30
0.0
 11
2264.68907247511
 21
1529.269372297565
 31
0.0
  0
LINE
  5
323
330
1D
100
AcDbEntity
  8
_1-3__0-2_蟇_豕___3-1
  6
Continuous
 62
     7
100
AcDbLine
 10
2264.68907247511
 20
1529.269372297565
 30
0.0
 11
2214.68907247511
 21
1529.269372297565
 31
0.0
  0
LINE
  5
324
330
1D
100
AcDbEntity
  8
_0-d__0-2_蟇_豕__ts
  6
Continuous
 62
     7
100
AcDbLine
 10
2214.68907247511
 20
1529.269372297565
 30
0.0
 11
2214.68907247511
 21
1534.269372297565
 31
0.0
  0
LINE
  5
325
330
1D
100
AcDbEntity
  8
_0-f__0-2_蟇_豕___29-1
  6
Continuous
 62
     7
100
AcDbLine
 10
2219.660172475109
 20
1459.358572297565
 30
0.0
 11
2219.660172475109
 21
1529.269372297565
 31
0.0
  0
LINE
  5
326
330
1D
100
AcDbEntity
  8
_0-d__0-2_蟇_豕__ts
  6
Continuous
 62
     7
100
AcDbLine
 10
2219.660172475109
 20
1529.269372297565
 30
0.0
 11
2214.68907247511
 21
1529.269372297565
 31
0.0
  0
LINE
  5
327
330
1D
100
AcDbEntity
  8
_1-3__0-2_蟇_豕___3-1
  6
Continuous
 62
     7
100
AcDbLine
 10
2214.68907247511
 20
1529.269372297565
 30
0.0
 11
2214.68907247511
 21
1459.358572297565
 31
0.0
  0
LINE
  5
328
330
1D
100
AcDbEntity
  8
_0-d__0-2_蟇_豕__ts
  6
Continuous
 62
     7
100
AcDbLine
 10
2214.68907247511
 20
1459.358572297565
 30
0.0
 11
2219.660172475109
 21
1459.358572297565
 31
0.0
  0
LINE
  5
329
330
1D
100
AcDbEntity
  8
_0-d__0-2_蟇_豕__ts
  6
Continuous
 62
     7
100
AcDbLine
 10
2264.67907247511
 20
1459.358572297565
 30
0.0
 11
2264.67907247511
 21
1529.269372297565
 31
0.0
  0
LINE
  5
32A
330
1D
100
AcDbEntity
  8
_1-4__0-2_蟇_豕___2-1
  6
Continuous
 62
     7
100
AcDbLine
 10
2264.67907247511
 20
1529.269372297565
 30
0.0
 11
2219.67907247511
 21
1529.269372297565
 31
0.0
  0
LINE
  5
32B
330
1D
100
AcDbEntity
  8
_1-3__0-2_蟇_豕___3-1
  6
Continuous
 62
     7
100
AcDbLine
 10
2219.67907247511
 20
1529.269372297565
 30
0.0
 11
2219.67907247511
 21
1459.358572297565
 31
0.0
  0
LINE
  5
32C
330
1D
100
AcDbEntity
  8
_0-d__0-2_蟇_豕__ts
  6
Continuous
 62
     7
100
AcDbLine
 10
2219.67907247511
 20
1459.358572297565
 30
0.0
 11
2264.67907247511
 21
1459.358572297565
 31
0.0
  0
INSERT
  5
32D
330
1D
100
AcDbEntity
  8
_0-1_荳_闊_
100
AcDbBlockReference
  2
-003-繧_繝_繝_繝__4-1
 10
2034.055167287535
 20
1636.066261035768
 30
0.0
  0
INSERT
  5
32E
330
1D
100
AcDbEntity
  8
_0-1_荳_闊_
100
AcDbBlockReference
  2
-004-繧_繝_繝_繝__5-1
 10
2034.055167287535
 20
1636.066261035768
 30
0.0
  0
LINE
  5
32F
330
1D
100
AcDbEntity
  8
_0-d__0-2_蟇_豕__ts
  6
Continuous
 62
     7
100
AcDbLine
 10
1697.84907247511
 20
1534.269372297565
 30
0.0
 11
1747.84907247511
 21
1534.269372297565
 31
0.0
  0
LINE
  5
330
330
1D
100
AcDbEntity
  8
_0-f__0-2_蟇_豕___29-1
  6
Continuous
 62
     7
100
AcDbLine
 10
1747.84907247511
 20
1534.269372297565
 30
0.0
 11
1747.84907247511
 21
1529.269372297565
 31
0.0
  0
LINE
  5
331
330
1D
100
AcDbEntity
  8
_0-f__0-2_蟇_豕___29-1
  6
Continuous
 62
     7
100
AcDbLine
 10
1747.84907247511
 20
1529.269372297565
 30
0.0
 11
1697.84907247511
 21
1529.269372297565
 31
0.0
  0
LINE
  5
332
330
1D
100
AcDbEntity
  8
_1-3__0-2_蟇_豕___3-1
  6
Continuous
 62
     7
100
AcDbLine
 10
1697.84907247511
 20
1529.269372297565
 30
0.0
 11
1697.84907247511
 21
1534.269372297565
 31
0.0
  0
LINE
  5
333
330
1D
100
AcDbEntity
  8
_1-3__0-2_蟇_豕___3-1
  6
Continuous
 62
     7
100
AcDbLine
 10
1747.82017247511
 20
1459.358572297565
 30
0.0
 11
1747.82017247511
 21
1529.269372297565
 31
0.0
  0
LINE
  5
334
330
1D
100
AcDbEntity
  8
_1-3__0-2_蟇_豕___3-1
  6
Continuous
 62
     7
100
AcDbLine
 10
1747.82017247511
 20
1529.269372297565
 30
0.0
 11
1742.82017247511
 21
1529.269372297565
 31
0.0
  0
LINE
  5
335
330
1D
100
AcDbEntity
  8
_0-d__0-2_蟇_豕__ts
  6
Continuous
 62
     7
100
AcDbLine
 10
1742.82017247511
 20
1529.269372297565
 30
0.0
 11
1742.82017247511
 21
1459.358572297565
 31
0.0
  0
LINE
  5
336
330
1D
100
AcDbEntity
  8
_1-5__0-2_蟇_豕___5-1
  6
Continuous
 62
     7
100
AcDbLine
 10
1742.82017247511
 20
1459.358572297565
 30
0.0
 11
1747.82017247511
 21
1459.358572297565
 31
0.0
  0
LINE
  5
337
330
1D
100
AcDbEntity
  8
_1-5__0-2_蟇_豕___5-1
  6
Continuous
 62
     7
100
AcDbLine
 10
1742.809072475109
 20
1459.358572297565
 30
0.0
 11
1742.809072475109
 21
1529.269372297565
 31
0.0
  0
LINE
  5
338
330
1D
100
AcDbEntity
  8
_1-5__0-2_蟇_豕___5-1
  6
Continuous
 62
     7
100
AcDbLine
 10
1742.809072475109
 20
1529.269372297565
 30
0.0
 11
1697.809072475109
 21
1529.269372297565
 31
0.0
  0
LINE
  5
339
330
1D
100
AcDbEntity
  8
_0-d__0-2_蟇_豕__ts
  6
Continuous
 62
     7
100
AcDbLine
 10
1697.809072475109
 20
1529.269372297565
 30
0.0
 11
1697.809072475109
 21
1459.358572297565
 31
0.0
  0
LINE
  5
33A
330
1D
100
AcDbEntity
  8
_1-3__0-2_蟇_豕___3-1
  6
Continuous
 62
     7
100
AcDbLine
 10
1697.809072475109
 20
1459.358572297565
 30
0.0
 11
1742.809072475109
 21
1459.358572297565
 31
0.0
  0
INSERT
  5
33B
330
1D
100
AcDbEntity
  8
_0-1_荳_闊_
100
AcDbBlockReference
  2
-005-繧_繝_繝_繝__6-1
 10
2034.055167287535
 20
1636.066261035768
 30
0.0
  0
INSERT
  5
33C
330
1D
100
AcDbEntity
  8
_0-1_荳_闊_
100
AcDbBlockReference
  2
-006-繧_繝_繝_繝__7-1
 10
2034.055167287535
 20
1636.066261035768
 30
0.0
  0
LINE
  5
33D
330
1D
100
AcDbEntity
  8
_0-d__0-2_蟇_豕__ts
  6
Continuous
 62
     7
100
AcDbLine
 10
1181.12907247511
 20
1534.280172297565
 30
0.0
 11
1231.12907247511
 21
1534.280172297565
 31
0.0
  0
LINE
  5
33E
330
1D
100
AcDbEntity
  8
_0-2_蟇_豕__
  6
Continuous
 62
     7
100
AcDbLine
 10
1231.12907247511
 20
1534.280172297565
 30
0.0
 11
1231.12907247511
 21
1529.280172297565
 31
0.0
  0
LINE
  5
33F
330
1D
100
AcDbEntity
  8
_0-2_蟇_豕__
  6
Continuous
 62
     7
100
AcDbLine
 10
1231.12907247511
 20
1529.280172297565
 30
0.0
 11
1181.12907247511
 21
1529.280172297565
 31
0.0
  0
LINE
  5
340
330
1D
100
AcDbEntity
  8
_0-d__0-2_蟇_豕__ts
  6
Continuous
 62
     7
100
AcDbLine
 10
1181.12907247511
 20
1529.280172297565
 30
0.0
 11
1181.12907247511
 21
1534.280172297565
 31
0.0
  0
LINE
  5
341
330
1D
100
AcDbEntity
  8
_1-6__0-2_蟇_豕___7-1
  6
Continuous
 62
     7
100
AcDbLine
 10
1181.12907247511
 20
1459.369372297565
 30
0.0
 11
1181.12907247511
 21
1529.280172297565
 31
0.0
  0
LINE
  5
342
330
1D
100
AcDbEntity
  8
_1-5__0-2_蟇_豕___5-1
  6
Continuous
 62
     7
100
AcDbLine
 10
1181.12907247511
 20
1529.280172297565
 30
0.0
 11
1186.12907247511
 21
1529.280172297565
 31
0.0
  0
LINE
  5
343
330
1D
100
AcDbEntity
  8
_1-6__0-2_蟇_豕___7-1
  6
Continuous
 62
     7
100
AcDbLine
 10
1186.12907247511
 20
1529.280172297565
 30
0.0
 11
1186.12907247511
 21
1459.369372297565
 31
0.0
  0
LINE
  5
344
330
1D
100
AcDbEntity
  8
_1-3__0-2_蟇_豕___3-1
  6
Continuous
 62
     7
100
AcDbLine
 10
1186.12907247511
 20
1459.369372297565
 30
0.0
 11
1181.12907247511
 21
1459.369372297565
 31
0.0
  0
LINE
  5
345
330
1D
100
AcDbEntity
  8
_0-d__0-2_蟇_豕__ts
  6
Continuous
 62
     7
100
AcDbLine
 10
1186.12907247511
 20
1459.369372297565
 30
0.0
 11
1186.12907247511
 21
1529.280172297565
 31
0.0
  0
LINE
  5
346
330
1D
100
AcDbEntity
  8
_1-3__0-2_蟇_豕___3-1
  6
Continuous
 62
     7
100
AcDbLine
 10
1186.12907247511
 20
1529.280172297565
 30
0.0
 11
1231.12907247511
 21
1529.280172297565
 31
0.0
  0
LINE
  5
347
330
1D
100
AcDbEntity
  8
_0-d__0-2_蟇_豕__ts
  6
Continuous
 62
     7
100
AcDbLine
 10
1231.12907247511
 20
1529.280172297565
 30
0.0
 11
1231.12907247511
 21
1459.369372297565
 31
0.0
  0
LINE
  5
348
330
1D
100
AcDbEntity
  8
_1-3__0-2_蟇_豕___3-1
  6
Continuous
 62
     7
100
AcDbLine
 10
1231.12907247511
 20
1459.369372297565
 30
0.0
 11
1186.12907247511
 21
1459.369372297565
 31
0.0
  0
INSERT
  5
349
330
1D
100
AcDbEntity
  8
_0-1_荳_闊_
100
AcDbBlockReference
  2
-007-繧_繝_繝_繝__8-1
 10
2034.055167287535
 20
1636.066261035768
 30
0.0
  0
INSERT
  5
34A
330
1D
100
AcDbEntity
  8
_0-1_荳_闊_
100
AcDbBlockReference
  2
-008-繧_繝_繝_繝__9-1
 10
2034.055167287535
 20
1636.066261035768
 30
0.0
  0
INSERT
  5
34B
330
1D
100
AcDbEntity
  8
_0-1_荳_闊_
100
AcDbBlockReference
  2
-009-繧_繝_繝_繝__10-1
 10
2034.055167287535
 20
1636.066261035768
 30
0.0
  0
INSERT
  5
34C
330
1D
100
AcDbEntity
  8
_0-1_荳_闊_
100
AcDbBlockReference
  2
-010-繧_繝_繝_繝__11-1
 10
2034.055167287535
 20
1636.066261035768
 30
0.0
  0
INSERT
  5
34D
330
1D
100
AcDbEntity
  8
_0-1_荳_闊_
100
AcDbBlockReference
  2
-011-繧_繝_繝_繝__12-1
 10
2034.055167287535
 20
1636.066261035768
 30
0.0
  0
LINE
  5
34E
330
1D
100
AcDbEntity
  8
_1-7__0-2_蟇_豕___8-1
  6
Continuous
 62
     7
100
AcDbLine
 10
3302.12907247511
 20
1566.004272297564
 30
0.0
 11
3302.12907247511
 21
1534.758572297564
 31
0.0
  0
LINE
  5
34F
330
1D
100
AcDbEntity
  8
_1-8__0-2_蟇_豕___6-1
  6
Continuous
 62
     7
100
AcDbLine
 10
3212.795609030487
 20
1016.758572297565
 30
0.0
 11
3492.795609030487
 21
1016.758572297565
 31
0.0
  0
LINE
  5
350
330
1D
100
AcDbEntity
  8
_0-f__0-2_蟇_豕___29-1
  6
Continuous
 62
     7
100
AcDbLine
 10
3492.795609030487
 20
1016.758572297565
 30
0.0
 11
3492.795609030487
 21
1007.758572297564
 31
0.0
  0
LINE
  5
351
330
1D
100
AcDbEntity
  8
_1-9__0-2_蟇_豕___12-1
  6
Continuous
 62
     7
100
AcDbLine
 10
3492.795609030487
 20
1007.758572297564
 30
0.0
 11
3212.795609030487
 21
1007.758572297564
 31
0.0
  0
LINE
  5
352
330
1D
100
AcDbEntity
  8
_1-7__0-2_蟇_豕___8-1
  6
Continuous
 62
     7
100
AcDbLine
 10
3212.795609030487
 20
1007.758572297564
 30
0.0
 11
3212.795609030487
 21
1016.758572297565
 31
0.0
  0
LINE
  5
353
330
1D
100
AcDbEntity
  8
_0-1_荳_闊_
  6
1
 62
     7
100
AcDbLine
 10
2481.554072412059
 20
1157.269372297565
 30
0.0
 11
411.544586541151
 21
1157.269372297565
 31
0.0
  0
LINE
  5
354
330
1D
100
AcDbEntity
  8
_0-1_荳_闊_
  6
Continuous
 62
     7
100
AcDbLine
 10
924.1998757643989
 20
1326.141304748237
 30
0.0
 11
848.681097682209
 21
1326.141304748237
 31
0.0
  0
LINE
  5
355
330
1D
100
AcDbEntity
  8
_0-1_荳_闊_
  6
Continuous
 62
     7
100
AcDbLine
 10
848.681097682209
 20
1326.141304748237
 30
0.0
 11
768.888588532187
 21
1405.933813898272
 31
0.0
  0
LINE
  5
356
330
1D
100
AcDbEntity
  8
_0-1_荳_闊_
  6
Continuous
 62
     7
100
AcDbLine
 10
1697.809072475109
 20
1472.047772297565
 30
0.0
 11
1636.2910750807
 21
1329.141304748237
 31
0.0
  0
LINE
  5
357
330
1D
100
AcDbEntity
  8
_0-1_荳_闊_
  6
Continuous
 62
     7
100
AcDbLine
 10
1636.2910750807
 20
1329.141304748237
 30
0.0
 11
1690.2910750807
 21
1329.141304748237
 31
0.0
  0
LINE
  5
358
330
1D
100
AcDbEntity
  8
_0-1_荳_闊_
  6
Continuous
 62
     7
100
AcDbLine
 10
564.32907247511
 20
1577.269372297564
 30
0.0
 11
2364.32907247511
 21
1577.269372297564
 31
0.0
  0
LINE
  5
359
330
1D
100
AcDbEntity
  8
_0-1_荳_闊_
  6
Continuous
 62
     7
100
AcDbLine
 10
2364.32907247511
 20
1577.269372297564
 30
0.0
 11
2364.32907247511
 21
1534.269372297565
 31
0.0
  0
LINE
  5
35A
330
1D
100
AcDbEntity
  8
_0-1_荳_闊_
  6
Continuous
 62
     7
100
AcDbLine
 10
2364.32907247511
 20
1534.269372297565
 30
0.0
 11
564.32907247511
 21
1534.269372297565
 31
0.0
  0
LINE
  5
35B
330
1D
100
AcDbEntity
  8
_0-1_荳_闊_
  6
Continuous
 62
     7
100
AcDbLine
 10
564.32907247511
 20
1534.269372297565
 30
0.0
 11
564.32907247511
 21
1577.269372297564
 31
0.0
  0
LINE
  5
35C
330
1D
100
AcDbEntity
  8
_0-1_荳_闊_
  6
Continuous
 62
     7
100
AcDbLine
 10
714.3670698695189
 20
1457.758572297565
 30
0.0
 11
564.32907247511
 21
1457.758572297565
 31
0.0
  0
LINE
  5
35D
330
1D
100
AcDbEntity
  8
_0-1_荳_闊_
  6
Continuous
 62
     7
100
AcDbLine
 10
564.32907247511
 20
1457.758572297565
 30
0.0
 11
564.32907247511
 21
1534.269372297565
 31
0.0
  0
LINE
  5
35E
330
1D
100
AcDbEntity
  8
_0-1_荳_闊_
  6
Continuous
 62
     7
100
AcDbLine
 10
564.32907247511
 20
1534.269372297565
 30
0.0
 11
2364.32907247511
 21
1534.269372297565
 31
0.0
  0
LINE
  5
35F
330
1D
100
AcDbEntity
  8
_0-1_荳_闊_
  6
Continuous
 62
     7
100
AcDbLine
 10
2364.32907247511
 20
1534.269372297565
 30
0.0
 11
2364.32907247511
 21
1457.758572297565
 31
0.0
  0
LINE
  5
360
330
1D
100
AcDbEntity
  8
_0-1_荳_闊_
  6
Continuous
 62
     7
100
AcDbLine
 10
2364.32907247511
 20
1457.758572297565
 30
0.0
 11
2214.2910750807
 21
1457.758572297565
 31
0.0
  0
LINE
  5
361
330
1D
100
AcDbEntity
  8
_0-1_荳_闊_
  6
Continuous
 62
     7
100
AcDbLine
 10
2114.32907247511
 20
1457.758572297565
 30
0.0
 11
814.32907247511
 21
1457.758572297565
 31
0.0
  0
LINE
  5
362
330
1D
100
AcDbEntity
  8
_0-d__0-2_蟇_豕__ts
  6
Continuous
 62
     7
100
AcDbLine
 10
3339.42907247511
 20
1529.776872297565
 30
0.0
 11
3344.42907247511
 21
1529.776872297565
 31
0.0
  0
LINE
  5
363
330
1D
100
AcDbEntity
  8
_1-a__0-2_蟇_豕___11-1
  6
Continuous
 62
     7
100
AcDbLine
 10
3344.42907247511
 20
1529.776872297565
 30
0.0
 11
3344.42907247511
 21
1456.747772297565
 31
0.0
  0
LINE
  5
364
330
1D
100
AcDbEntity
  8
_1-7__0-2_蟇_豕___8-1
  6
Continuous
 62
     7
100
AcDbLine
 10
3344.42907247511
 20
1456.747772297565
 30
0.0
 11
3339.42907247511
 21
1456.747772297565
 31
0.0
  0
LINE
  5
365
330
1D
100
AcDbEntity
  8
_0-d__0-2_蟇_豕__ts
  6
Continuous
 62
     7
100
AcDbLine
 10
3339.42907247511
 20
1456.747772297565
 30
0.0
 11
3339.42907247511
 21
1529.776872297565
 31
0.0
  0
INSERT
  5
366
330
1D
100
AcDbEntity
  8
_0-1_荳_闊_
100
AcDbBlockReference
  2
-015-繧_繝_繝_繝__16-1
 10
2034.055167287535
 20
1636.066261035768
 30
0.0
  0
INSERT
  5
367
330
1D
100
AcDbEntity
  8
_0-1_荳_闊_
100
AcDbBlockReference
  2
-019-繧_繝_繝_繝__20-1
 10
2034.055167287535
 20
1636.066261035768
 30
0.0
  0
INSERT
  5
368
330
1D
100
AcDbEntity
  8
_0-d__0-2_蟇_豕__ts
100
AcDbBlockReference
  2
-021-_D21
 10
2032.2910750807
 20
1633.141304748237
 30
0.0
  0
INSERT
  5
369
330
1D
100
AcDbEntity
  8
_0-7__0-2_蟇_豕___16-1
100
AcDbBlockReference
  2
-022-_D22
 10
2032.2910750807
 20
1633.141304748237
 30
0.0
  0
INSERT
  5
36A
330
1D
100
AcDbEntity
  8
_0-d__0-2_蟇_豕__ts
100
AcDbBlockReference
  2
-023-_D23
 10
2032.2910750807
 20
1633.141304748237
 30
0.0
  0
INSERT
  5
36B
330
1D
100
AcDbEntity
  8
_1-7__0-2_蟇_豕___8-1
100
AcDbBlockReference
  2
-024-_D24
 10
2032.2910750807
 20
1633.141304748237
 30
0.0
  0
LINE
  5
36C
330
1D
100
AcDbEntity
  8
_0-1_荳_闊_
  6
Continuous
 62
     7
100
AcDbLine
 10
3302.841442351881
 20
1016.758572297565
 30
0.0
 11
3401.499728607803
 21
1016.758572297565
 31
0.0
  0
LINE
  5
36D
330
1D
100
AcDbEntity
  8
_0-1_荳_闊_
  6
Continuous
 62
     7
100
AcDbLine
 10
565.3290724751099
 20
2662.758572297564
 30
0.0
 11
2365.32907247511
 21
2662.758572297564
 31
0.0
  0
LINE
  5
36E
330
1D
100
AcDbEntity
  8
_0-1_荳_闊_
  6
Continuous
 62
     7
100
AcDbLine
 10
2365.32907247511
 20
2662.758572297564
 30
0.0
 11
2365.32907247511
 21
2562.758572297564
 31
0.0
  0
LINE
  5
36F
330
1D
100
AcDbEntity
  8
_0-1_荳_闊_
  6
Continuous
 62
     7
100
AcDbLine
 10
2365.32907247511
 20
2562.758572297564
 30
0.0
 11
565.3290724751099
 21
2562.758572297564
 31
0.0
  0
LINE
  5
370
330
1D
100
AcDbEntity
  8
_0-1_荳_闊_
  6
Continuous
 62
     7
100
AcDbLine
 10
565.3290724751099
 20
2562.758572297564
 30
0.0
 11
565.3290724751099
 21
2662.758572297564
 31
0.0
  0
LINE
  5
371
330
1D
100
AcDbEntity
  8
_1-6__0-2_蟇_豕___7-1
  6
Continuous
 62
     7
100
AcDbLine
 10
2064.32907247511
 20
1016.385797454055
 30
0.0
 11
2264.32907247511
 21
1016.385797454055
 31
0.0
  0
LINE
  5
372
330
1D
100
AcDbEntity
  8
_1-6__0-2_蟇_豕___7-1
  6
Continuous
 62
     7
100
AcDbLine
 10
2264.32907247511
 20
1016.385797454055
 30
0.0
 11
2264.32907247511
 21
1007.385797454055
 31
0.0
  0
LINE
  5
373
330
1D
100
AcDbEntity
  8
_1-a__0-2_蟇_豕___11-1
  6
Continuous
 62
     7
100
AcDbLine
 10
2264.32907247511
 20
1007.385797454055
 30
0.0
 11
2064.32907247511
 21
1007.385797454055
 31
0.0
  0
LINE
  5
374
330
1D
100
AcDbEntity
  8
_1-6__0-2_蟇_豕___7-1
  6
Continuous
 62
     7
100
AcDbLine
 10
2064.32907247511
 20
1007.385797454055
 30
0.0
 11
2064.32907247511
 21
1016.385797454055
 31
0.0
  0
INSERT
  5
375
330
1D
100
AcDbEntity
  8
_0-1_荳_闊_
100
AcDbBlockReference
  2
-025-繧_繝_繝_繝__21-1
 10
2034.055167287535
 20
1636.066261035768
 30
0.0
  0
INSERT
  5
376
330
1D
100
AcDbEntity
  8
_0-1_荳_闊_
100
AcDbBlockReference
  2
-026-繧_繝_繝_繝__22-1
 10
2034.055167287535
 20
1636.066261035768
 30
0.0
  0
INSERT
  5
377
330
1D
100
AcDbEntity
  8
_0-1_荳_闊_
100
AcDbBlockReference
  2
-027-繧_繝_繝_繝__23-1
 10
2034.055167287535
 20
1636.066261035768
 30
0.0
  0
LINE
  5
378
330
1D
100
AcDbEntity
  8
_0-1_荳_闊_
  6
1
 62
     7
100
AcDbLine
 10
3692.2910750807
 20
1157.269372297565
 30
0.0
 11
2892.2910750807
 21
1157.269372297565
 31
0.0
  0
INSERT
  5
379
330
1D
100
AcDbEntity
  8
_0-d__0-2_蟇_豕__ts
100
AcDbBlockReference
  2
-028-_D28
 10
2032.2910750807
 20
1633.141304748237
 30
0.0
  0
INSERT
  5
37A
330
1D
100
AcDbEntity
  8
_1-b__0-2_蟇_豕___21-1
100
AcDbBlockReference
  2
-029-_D29
 10
2032.2910750807
 20
1633.141304748237
 30
0.0
  0
INSERT
  5
37B
330
1D
100
AcDbEntity
  8
_0-2_蟇_豕__
100
AcDbBlockReference
  2
-030-_D30
 10
2032.2910750807
 20
1633.141304748237
 30
0.0
  0
INSERT
  5
37C
330
1D
100
AcDbEntity
  8
_1-c__0-2_蟇_豕___23-1
100
AcDbBlockReference
  2
-031-_D31
 10
2032.2910750807
 20
1633.141304748237
 30
0.0
  0
INSERT
  5
37D
330
1D
100
AcDbEntity
  8
_1-6__0-2_蟇_豕___7-1
100
AcDbBlockReference
  2
-032-_D32
 10
2032.2910750807
 20
1633.141304748237
 30
0.0
  0
INSERT
  5
37E
330
1D
100
AcDbEntity
  8
_1-7__0-2_蟇_豕___8-1
100
AcDbBlockReference
  2
-033-_D33
 10
2032.2910750807
 20
1633.141304748237
 30
0.0
  0
INSERT
  5
37F
330
1D
100
AcDbEntity
  8
_1-6__0-2_蟇_豕___7-1
100
AcDbBlockReference
  2
-034-_D34
 10
2032.2910750807
 20
1633.141304748237
 30
0.0
  0
INSERT
  5
380
330
1D
100
AcDbEntity
  8
_1-7__0-2_蟇_豕___8-1
100
AcDbBlockReference
  2
-035-_D35
 10
2032.2910750807
 20
1633.141304748237
 30
0.0
  0
INSERT
  5
381
330
1D
100
AcDbEntity
  8
_1-7__0-2_蟇_豕___8-1
100
AcDbBlockReference
  2
-036-_D36
 10
2032.2910750807
 20
1633.141304748237
 30
0.0
  0
INSERT
  5
382
330
1D
100
AcDbEntity
  8
_1-7__0-2_蟇_豕___8-1
100
AcDbBlockReference
  2
-037-_D37
 10
2032.2910750807
 20
1633.141304748237
 30
0.0
  0
LINE
  5
383
330
1D
100
AcDbEntity
  8
_0-1_荳_闊_
  6
Continuous
 62
     7
100
AcDbLine
 10
1582.2910750807
 20
2230.104255410233
 30
0.0
 11
1660.012390737877
 21
2095.486987860906
 31
0.0
  0
LINE
  5
384
330
1D
100
AcDbEntity
  8
_0-1_荳_闊_
  6
Continuous
 62
     7
100
AcDbLine
 10
1574.2910750807
 20
2637.141304748237
 30
0.0
 11
1630.2910750807
 21
2748.141304748238
 31
0.0
  0
LINE
  5
385
330
1D
100
AcDbEntity
  8
_0-1_荳_闊_
  6
Continuous
 62
     7
100
AcDbLine
 10
1630.2910750807
 20
2748.141304748238
 30
0.0
 11
1730.2910750807
 21
2748.141304748238
 31
0.0
  0
INSERT
  5
386
330
1D
100
AcDbEntity
  8
_1-7__0-2_蟇_豕___8-1
100
AcDbBlockReference
  2
-038-_D38
 10
2032.2910750807
 20
1633.141304748237
 30
0.0
  0
INSERT
  5
387
330
1D
100
AcDbEntity
  8
_1-c__0-2_蟇_豕___23-1
100
AcDbBlockReference
  2
-039-_D39
 10
2032.2910750807
 20
1633.141304748237
 30
0.0
  0
INSERT
  5
388
330
1D
100
AcDbEntity
  8
_1-6__0-2_蟇_豕___7-1
100
AcDbBlockReference
  2
-040-_D40
 10
2032.2910750807
 20
1633.141304748237
 30
0.0
  0
INSERT
  5
389
330
1D
100
AcDbEntity
  8
_0-1_荳_闊_
100
AcDbBlockReference
  2
-041-繧_繝_繝_繝__24-1
 10
2034.055167287535
 20
1636.066261035768
 30
0.0
  0
LINE
  5
38A
330
1D
100
AcDbEntity
  8
_1-c__0-2_蟇_豕___23-1
  6
Continuous
 62
     7
100
AcDbLine
 10
664.36706986952
 20
1016.385797454055
 30
0.0
 11
864.3670698695201
 21
1016.385797454055
 31
0.0
  0
LINE
  5
38B
330
1D
100
AcDbEntity
  8
_1-d__0-2_蟇_豕___24-1
  6
Continuous
 62
     7
100
AcDbLine
 10
864.3670698695201
 20
1016.385797454055
 30
0.0
 11
864.3670698695201
 21
1007.385797454055
 31
0.0
  0
LINE
  5
38C
330
1D
100
AcDbEntity
  8
_1-b__0-2_蟇_豕___21-1
  6
Continuous
 62
     7
100
AcDbLine
 10
864.3670698695201
 20
1007.385797454055
 30
0.0
 11
664.36706986952
 21
1007.385797454055
 31
0.0
  0
LINE
  5
38D
330
1D
100
AcDbEntity
  8
_0-d__0-2_蟇_豕__ts
  6
Continuous
 62
     7
100
AcDbLine
 10
664.36706986952
 20
1007.385797454055
 30
0.0
 11
664.36706986952
 21
1016.385797454055
 31
0.0
  0
INSERT
  5
38E
330
1D
100
AcDbEntity
  8
_0-1_荳_闊_
100
AcDbBlockReference
  2
-042-繧_繝_繝_繝__25-1
 10
2034.055167287535
 20
1636.066261035768
 30
0.0
  0
INSERT
  5
38F
330
1D
100
AcDbEntity
  8
_0-1_荳_闊_
100
AcDbBlockReference
  2
-043-繧_繝_繝_繝__26-1
 10
2034.055167287535
 20
1636.066261035768
 30
0.0
  0
INSERT
  5
390
330
1D
100
AcDbEntity
  8
_1-7__0-2_蟇_豕___8-1
100
AcDbBlockReference
  2
-044-_D44
 10
2032.2910750807
 20
1633.141304748237
 30
0.0
  0
INSERT
  5
391
330
1D
100
AcDbEntity
  8
_1-7__0-2_蟇_豕___8-1
100
AcDbBlockReference
  2
-045-_D45
 10
2032.2910750807
 20
1633.141304748237
 30
0.0
  0
INSERT
  5
392
330
1D
100
AcDbEntity
  8
_1-7__0-2_蟇_豕___8-1
100
AcDbBlockReference
  2
-046-_D46
 10
2032.2910750807
 20
1633.141304748237
 30
0.0
  0
LINE
  5
393
330
1D
100
AcDbEntity
  8
_0-1_荳_闊_
  6
Continuous
 62
     7
100
AcDbLine
 10
3102.795609030487
 20
1007.758572297564
 30
0.0
 11
3602.795609030487
 21
1007.758572297564
 31
0.0
  0
LINE
  5
394
330
1D
100
AcDbEntity
  8
_0-1_荳_闊_
  6
Continuous
 62
     7
100
AcDbLine
 10
3602.795609030487
 20
1007.758572297564
 30
0.0
 11
3602.795609030487
 21
707.7585722975647
 31
0.0
  0
LINE
  5
395
330
1D
100
AcDbEntity
  8
_0-1_荳_闊_
  6
Continuous
 62
     7
100
AcDbLine
 10
3602.795609030487
 20
707.7585722975647
 30
0.0
 11
3102.795609030487
 21
707.7585722975647
 31
0.0
  0
LINE
  5
396
330
1D
100
AcDbEntity
  8
_0-1_荳_闊_
  6
Continuous
 62
     7
100
AcDbLine
 10
3102.795609030487
 20
707.7585722975647
 30
0.0
 11
3102.795609030487
 21
1007.758572297564
 31
0.0
  0
LINE
  5
397
330
1D
100
AcDbEntity
  8
_0-1_荳_闊_
  6
Continuous
 62
     7
100
AcDbLine
 10
3077.795609030487
 20
707.7585722975647
 30
0.0
 11
3627.795609030487
 21
707.7585722975647
 31
0.0
  0
LINE
  5
398
330
1D
100
AcDbEntity
  8
_0-1_荳_闊_
  6
Continuous
 62
     7
100
AcDbLine
 10
3627.795609030487
 20
707.7585722975647
 30
0.0
 11
3627.795609030487
 21
657.7585722975647
 31
0.0
  0
LINE
  5
399
330
1D
100
AcDbEntity
  8
_0-1_荳_闊_
  6
Continuous
 62
     7
100
AcDbLine
 10
3627.795609030487
 20
657.7585722975647
 30
0.0
 11
3077.795609030487
 21
657.7585722975647
 31
0.0
  0
LINE
  5
39A
330
1D
100
AcDbEntity
  8
_0-1_荳_闊_
  6
Continuous
 62
     7
100
AcDbLine
 10
3077.795609030487
 20
657.7585722975647
 30
0.0
 11
3077.795609030487
 21
707.7585722975647
 31
0.0
  0
LINE
  5
39B
330
1D
100
AcDbEntity
  8
_0-1_荳_闊_
  6
Continuous
 62
     7
100
AcDbLine
 10
3110.666032217263
 20
657.7585722975647
 30
0.0
 11
3139.533545676741
 21
707.7585722975647
 31
0.0
  0
LINE
  5
39C
330
1D
100
AcDbEntity
  8
_0-1_荳_闊_
  6
Continuous
 62
     7
100
AcDbLine
 10
3136.931350017111
 20
703.2514372038499
 30
0.0
 11
3132.424214923397
 21
707.7585722975647
 31
0.0
  0
LINE
  5
39D
330
1D
100
AcDbEntity
  8
_0-1_荳_闊_
  6
Continuous
 62
     7
100
AcDbLine
 10
3117.775362970608
 20
657.7585722975647
 30
0.0
 11
3113.268227876893
 21
662.2657073912797
 31
0.0
  0
LINE
  5
39E
330
1D
100
AcDbEntity
  8
_0-1_荳_闊_
  6
Continuous
 62
     7
100
AcDbLine
 10
3161.105763105132
 20
657.7585722975647
 30
0.0
 11
3189.97327656461
 21
707.7585722975647
 31
0.0
  0
LINE
  5
39F
330
1D
100
AcDbEntity
  8
_0-1_荳_闊_
  6
Continuous
 62
     7
100
AcDbLine
 10
3187.371080904979
 20
703.2514372038499
 30
0.0
 11
3182.863945811265
 21
707.7585722975647
 31
0.0
  0
LINE
  5
3A0
330
1D
100
AcDbEntity
  8
_0-1_荳_闊_
  6
Continuous
 62
     7
100
AcDbLine
 10
3168.215093858476
 20
657.7585722975647
 30
0.0
 11
3163.707958764761
 21
662.2657073912797
 31
0.0
  0
LINE
  5
3A1
330
1D
100
AcDbEntity
  8
_0-1_荳_闊_
  6
Continuous
 62
     7
100
AcDbLine
 10
3211.545493992999
 20
657.7585722975647
 30
0.0
 11
3240.413007452477
 21
707.7585722975647
 31
0.0
  0
LINE
  5
3A2
330
1D
100
AcDbEntity
  8
_0-1_荳_闊_
  6
Continuous
 62
     7
100
AcDbLine
 10
3237.810811792847
 20
703.2514372038499
 30
0.0
 11
3233.303676699132
 21
707.7585722975647
 31
0.0
  0
LINE
  5
3A3
330
1D
100
AcDbEntity
  8
_0-1_荳_闊_
  6
Continuous
 62
     7
100
AcDbLine
 10
3218.654824746344
 20
657.7585722975647
 30
0.0
 11
3214.147689652629
 21
662.2657073912797
 31
0.0
  0
LINE
  5
3A4
330
1D
100
AcDbEntity
  8
_0-1_荳_闊_
  6
Continuous
 62
     7
100
AcDbLine
 10
3261.985224880868
 20
657.7585722975647
 30
0.0
 11
3290.852738340345
 21
707.7585722975647
 31
0.0
  0
LINE
  5
3A5
330
1D
100
AcDbEntity
  8
_0-1_荳_闊_
  6
Continuous
 62
     7
100
AcDbLine
 10
3288.250542680715
 20
703.2514372038499
 30
0.0
 11
3283.743407587
 21
707.7585722975647
 31
0.0
  0
LINE
  5
3A6
330
1D
100
AcDbEntity
  8
_0-1_荳_闊_
  6
Continuous
 62
     7
100
AcDbLine
 10
3269.094555634212
 20
657.7585722975647
 30
0.0
 11
3264.587420540497
 21
662.2657073912797
 31
0.0
  0
LINE
  5
3A7
330
1D
100
AcDbEntity
  8
_0-1_荳_闊_
  6
Continuous
 62
     7
100
AcDbLine
 10
3312.424955768736
 20
657.7585722975647
 30
0.0
 11
3341.292469228213
 21
707.7585722975647
 31
0.0
  0
LINE
  5
3A8
330
1D
100
AcDbEntity
  8
_0-1_荳_闊_
  6
Continuous
 62
     7
100
AcDbLine
 10
3338.690273568583
 20
703.2514372038499
 30
0.0
 11
3334.183138474868
 21
707.7585722975647
 31
0.0
  0
LINE
  5
3A9
330
1D
100
AcDbEntity
  8
_0-1_荳_闊_
  6
Continuous
 62
     7
100
AcDbLine
 10
3319.53428652208
 20
657.7585722975647
 30
0.0
 11
3315.027151428366
 21
662.2657073912797
 31
0.0
  0
LINE
  5
3AA
330
1D
100
AcDbEntity
  8
_0-1_荳_闊_
  6
Continuous
 62
     7
100
AcDbLine
 10
3362.864686656603
 20
657.7585722975647
 30
0.0
 11
3391.732200116081
 21
707.7585722975647
 31
0.0
  0
LINE
  5
3AB
330
1D
100
AcDbEntity
  8
_0-1_荳_闊_
  6
Continuous
 62
     7
100
AcDbLine
 10
3389.13000445645
 20
703.2514372038499
 30
0.0
 11
3384.622869362736
 21
707.7585722975647
 31
0.0
  0
LINE
  5
3AC
330
1D
100
AcDbEntity
  8
_0-1_荳_闊_
  6
Continuous
 62
     7
100
AcDbLine
 10
3369.974017409948
 20
657.7585722975647
 30
0.0
 11
3365.466882316233
 21
662.2657073912797
 31
0.0
  0
LINE
  5
3AD
330
1D
100
AcDbEntity
  8
_0-1_荳_闊_
  6
Continuous
 62
     7
100
AcDbLine
 10
3413.30441754447
 20
657.7585722975647
 30
0.0
 11
3442.17193100395
 21
707.7585722975647
 31
0.0
  0
LINE
  5
3AE
330
1D
100
AcDbEntity
  8
_0-1_荳_闊_
  6
Continuous
 62
     7
100
AcDbLine
 10
3439.569735344317
 20
703.2514372038499
 30
0.0
 11
3435.062600250604
 21
707.7585722975647
 31
0.0
  0
LINE
  5
3AF
330
1D
100
AcDbEntity
  8
_0-1_荳_闊_
  6
Continuous
 62
     7
100
AcDbLine
 10
3420.413748297816
 20
657.7585722975647
 30
0.0
 11
3415.9066132041
 21
662.2657073912797
 31
0.0
  0
LINE
  5
3B0
330
1D
100
AcDbEntity
  8
_0-1_荳_闊_
  6
Continuous
 62
     7
100
AcDbLine
 10
3512.711623484753
 20
1007.758572297564
 30
0.0
 11
3212.44506306769
 21
707.4920118805494
 31
0.0
  0
LINE
  5
3B1
330
1D
100
AcDbEntity
  8
_0-1_荳_闊_
  6
Continuous
 62
     7
100
AcDbLine
 10
3503.198339053405
 20
1007.758572297565
 30
0.0
 11
3202.931778636438
 21
707.4920118805494
 31
0.0
  0
LINE
  5
3B2
330
1D
100
AcDbEntity
  8
_0-1_荳_闊_
  6
Continuous
 62
     7
100
AcDbLine
 10
3493.685054622153
 20
1007.758572297565
 30
0.0
 11
3193.418494205186
 21
707.4920118805494
 31
0.0
  0
LINE
  5
3B3
330
1D
100
AcDbEntity
  8
_0-1_荳_闊_
  6
Continuous
 62
     7
100
AcDbLine
 10
3113.930766894923
 20
707.7585722975651
 30
0.0
 11
3113.664206477908
 21
707.4920118805494
 31
0.0
  0
LINE
  5
3B4
330
1D
100
AcDbEntity
  8
_0-1_荳_闊_
  6
Continuous
 62
     7
100
AcDbLine
 10
3459.296588265018
 20
657.7585722975647
 30
0.0
 11
3488.164101724496
 21
707.7585722975647
 31
0.0
  0
LINE
  5
3B5
330
1D
100
AcDbEntity
  8
_0-1_荳_闊_
  6
Continuous
 62
     7
100
AcDbLine
 10
3485.561906064867
 20
703.2514372038499
 30
0.0
 11
3481.054770971152
 21
707.7585722975647
 31
0.0
  0
LINE
  5
3B6
330
1D
100
AcDbEntity
  8
_0-1_荳_闊_
  6
Continuous
 62
     7
100
AcDbLine
 10
3466.405919018363
 20
657.7585722975647
 30
0.0
 11
3461.898783924649
 21
662.2657073912797
 31
0.0
  0
LINE
  5
3B7
330
1D
100
AcDbEntity
  8
_0-1_荳_闊_
  6
Continuous
 62
     7
100
AcDbLine
 10
3509.736319152886
 20
657.7585722975647
 30
0.0
 11
3538.603832612364
 21
707.7585722975647
 31
0.0
  0
LINE
  5
3B8
330
1D
100
AcDbEntity
  8
_0-1_荳_闊_
  6
Continuous
 62
     7
100
AcDbLine
 10
3536.001636952735
 20
703.2514372038499
 30
0.0
 11
3531.49450185902
 21
707.7585722975647
 31
0.0
  0
LINE
  5
3B9
330
1D
100
AcDbEntity
  8
_0-1_荳_闊_
  6
Continuous
 62
     7
100
AcDbLine
 10
3516.845649906232
 20
657.7585722975647
 30
0.0
 11
3512.338514812516
 21
662.2657073912797
 31
0.0
  0
LINE
  5
3BA
330
1D
100
AcDbEntity
  8
_0-1_荳_闊_
  6
Continuous
 62
     7
100
AcDbLine
 10
3560.176050040754
 20
657.7585722975647
 30
0.0
 11
3589.043563500232
 21
707.7585722975647
 31
0.0
  0
LINE
  5
3BB
330
1D
100
AcDbEntity
  8
_0-1_荳_闊_
  6
Continuous
 62
     7
100
AcDbLine
 10
3586.441367840603
 20
703.2514372038499
 30
0.0
 11
3581.934232746887
 21
707.7585722975647
 31
0.0
  0
LINE
  5
3BC
330
1D
100
AcDbEntity
  8
_0-1_荳_闊_
  6
Continuous
 62
     7
100
AcDbLine
 10
3567.285380794099
 20
657.7585722975647
 30
0.0
 11
3562.778245700384
 21
662.2657073912797
 31
0.0
  0
LINE
  5
3BD
330
1D
100
AcDbEntity
  8
_0-1_荳_闊_
  6
Continuous
 62
     7
100
AcDbLine
 10
3462.561322942678
 20
707.7585722975651
 30
0.0
 11
3462.294762525663
 21
707.4920118805494
 31
0.0
  0
INSERT
  5
3BE
330
1D
100
AcDbEntity
  8
_1-7__0-2_蟇_豕___8-1
100
AcDbBlockReference
  2
-047-_D47
 10
2032.2910750807
 20
1633.141304748237
 30
0.0
  0
LINE
  5
3BF
330
1D
100
AcDbEntity
  8
_0-1_荳_闊_
  6
Continuous
 62
     7
100
AcDbLine
 10
137.2910827124661
 20
387.0129277024355
 30
0.0
 11
3994.526982873864
 21
387.0129277024355
 31
0.0
  0
LINE
  5
3C0
330
1D
100
AcDbEntity
  8
_0-1_荳_闊_
  6
Continuous
 62
     7
100
AcDbLine
 10
3994.526982873864
 20
387.0129277024355
 30
0.0
 11
3994.526982873864
 21
267.0129277024356
 31
0.0
  0
LINE
  5
3C1
330
1D
100
AcDbEntity
  8
_0-1_荳_闊_
  6
Continuous
 62
     7
100
AcDbLine
 10
3994.526982873864
 20
267.0129277024356
 30
0.0
 11
137.2910827124661
 21
267.0129277024356
 31
0.0
  0
LINE
  5
3C2
330
1D
100
AcDbEntity
  8
_0-1_荳_闊_
  6
Continuous
 62
     7
100
AcDbLine
 10
137.2910827124661
 20
267.0129277024356
 30
0.0
 11
137.2910827124661
 21
387.0129277024355
 31
0.0
  0
LINE
  5
3C3
330
1D
100
AcDbEntity
  8
_0-1_荳_闊_
  6
Continuous
 62
     7
100
AcDbLine
 10
1815.721862705159
 20
387.0129277024355
 30
0.0
 11
1815.721862705159
 21
267.0129277024356
 31
0.0
  0
LINE
  5
3C4
330
1D
100
AcDbEntity
  8
_0-1_荳_闊_
  6
Continuous
 62
     7
100
AcDbLine
 10
3393.721862705159
 20
387.0129277024355
 30
0.0
 11
3393.721862705159
 21
267.0129277024356
 31
0.0
  0
LINE
  5
3C5
330
1D
100
AcDbEntity
  8
_0-1_荳_闊_
  6
Continuous
 62
     7
100
AcDbLine
 10
3089.72186270516
 20
387.0129277024355
 30
0.0
 11
3089.72186270516
 21
267.0129277024356
 31
0.0
  0
LINE
  5
3C6
330
1D
100
AcDbEntity
  8
_0-1_荳_闊_
  6
Continuous
 62
     7
100
AcDbLine
 10
2785.721862705159
 20
387.0129277024355
 30
0.0
 11
2785.721862705159
 21
267.0129277024356
 31
0.0
  0
LINE
  5
3C7
330
1D
100
AcDbEntity
  8
_0-1_荳_闊_
  6
Continuous
 62
     7
100
AcDbLine
 10
2785.721862705159
 20
387.0129277024355
 30
0.0
 11
2785.721862705159
 21
267.0129277024356
 31
0.0
  0
LINE
  5
3C8
330
1D
100
AcDbEntity
  8
_0-1_荳_闊_
  6
Continuous
 62
     7
100
AcDbLine
 10
2139.721862705159
 20
387.0129277024355
 30
0.0
 11
2139.721862705159
 21
267.0129277024356
 31
0.0
  0
LINE
  5
3C9
330
1D
100
AcDbEntity
  8
_0-1_荳_闊_
  6
Continuous
 62
     7
100
AcDbLine
 10
3089.72186270516
 20
387.0129277024355
 30
0.0
 11
3089.72186270516
 21
267.0129277024356
 31
0.0
  0
LINE
  5
3CA
330
1D
100
AcDbEntity
  8
_0-1_荳_闊_
  6
Continuous
 62
     7
100
AcDbLine
 10
699.3699789911491
 20
1016.385797454055
 30
0.0
 11
685.7517002337941
 21
1016.385797454055
 31
0.0
  0
INSERT
  5
3CB
330
1D
100
AcDbEntity
  8
_0-1_荳_闊_
100
AcDbBlockReference
  2
-049-繧_繝_繝_繝__28-1
 10
2034.055167287535
 20
1636.066261035768
 30
0.0
  0
LINE
  5
3CC
330
1D
100
AcDbEntity
  8
_0-1_荳_闊_
  6
Continuous
 62
     7
100
AcDbLine
 10
3302.477788490477
 20
1454.652134458959
 30
0.0
 11
3302.395763384191
 21
1031.755662893836
 31
0.0
  0
ARC
  5
3CD
330
1D
100
AcDbEntity
  8
_0-1_荳_闊_
  6
Continuous
 62
     7
100
AcDbCircle
 10
3287.395763666345
 20
1031.758572297565
 30
0.0
 40
15.00000000000011
100
AcDbArc
 50
270.0
 51
359.9888868962929
  0
LINE
  5
3CE
330
1D
100
AcDbEntity
  8
_0-1_荳_闊_
  6
Continuous
 62
     7
100
AcDbLine
 10
3402.367889758322
 20
1567.87872630563
 30
0.0
 11
3402.471850591057
 21
1031.888328855819
 31
0.0
  0
ARC
  5
3CF
330
1D
100
AcDbEntity
  8
_0-1_荳_闊_
  6
Continuous
 62
     7
100
AcDbCircle
 10
3417.372756542788
 20
1031.785613103057
 30
0.0
 40
14.99999999999998
100
AcDbArc
 50
180.011113103707
 51
270.0
  0
LINE
  5
3D0
330
1D
100
AcDbEntity
  8
_0-1_荳_闊_
  6
Continuous
 62
     7
100
AcDbLine
 10
1660.012390737877
 20
2095.486987860906
 30
0.0
 11
1710.159504648123
 21
2095.486987860906
 31
0.0
  0
LINE
  5
3D1
330
1D
100
AcDbEntity
  8
_0-1_荳_闊_
  6
Continuous
 62
     7
100
AcDbLine
 10
887.359226890504
 20
853.308934452589
 30
0.0
 11
937.8878457495851
 21
903.8375533116784
 31
0.0
  0
LINE
  5
3D2
330
1D
100
AcDbEntity
  8
_0-1_荳_闊_
  6
Continuous
 62
     7
100
AcDbLine
 10
937.8878457495851
 20
903.8375533116784
 30
0.0
 11
995.9003464194161
 21
903.8375533116784
 31
0.0
  0
LINE
  5
3D3
330
1D
100
AcDbEntity
  8
_1-6__0-2_蟇_豕___7-1
  6
Continuous
 62
     7
100
AcDbLine
 10
2908.12907247511
 20
1577.758572297564
 30
0.0
 11
3001.12907247511
 21
1577.758572297564
 31
0.0
  0
LINE
  5
3D4
330
1D
100
AcDbEntity
  8
_1-6__0-2_蟇_豕___7-1
  6
Continuous
 62
     7
100
AcDbLine
 10
3001.12907247511
 20
1577.758572297564
 30
0.0
 11
3001.12907247511
 21
1534.758572297564
 31
0.0
  0
LINE
  5
3D5
330
1D
100
AcDbEntity
  8
_1-7__0-2_蟇_豕___8-1
  6
Continuous
 62
     7
100
AcDbLine
 10
3001.12907247511
 20
1534.758572297564
 30
0.0
 11
2908.12907247511
 21
1534.758572297564
 31
0.0
  0
LINE
  5
3D6
330
1D
100
AcDbEntity
  8
_1-7__0-2_蟇_豕___8-1
  6
Continuous
 62
     7
100
AcDbLine
 10
2908.12907247511
 20
1534.758572297564
 30
0.0
 11
2908.12907247511
 21
1577.758572297564
 31
0.0
  0
LINE
  5
3D7
330
1D
100
AcDbEntity
  8
_1-7__0-2_蟇_豕___8-1
  6
Continuous
 62
     7
100
AcDbLine
 10
3006.12907247511
 20
1577.758572297564
 30
0.0
 11
3099.12907247511
 21
1577.758572297564
 31
0.0
  0
LINE
  5
3D8
330
1D
100
AcDbEntity
  8
_0-d__0-2_蟇_豕__ts
  6
Continuous
 62
     7
100
AcDbLine
 10
3099.12907247511
 20
1577.758572297564
 30
0.0
 11
3099.12907247511
 21
1534.758572297564
 31
0.0
  0
LINE
  5
3D9
330
1D
100
AcDbEntity
  8
_1-e__0-2_蟇_豕___28-1
  6
Continuous
 62
     7
100
AcDbLine
 10
3099.12907247511
 20
1534.758572297564
 30
0.0
 11
3006.12907247511
 21
1534.758572297564
 31
0.0
  0
LINE
  5
3DA
330
1D
100
AcDbEntity
  8
_0-d__0-2_蟇_豕__ts
  6
Continuous
 62
     7
100
AcDbLine
 10
3006.12907247511
 20
1534.758572297564
 30
0.0
 11
3006.12907247511
 21
1577.758572297564
 31
0.0
  0
LINE
  5
3DB
330
1D
100
AcDbEntity
  8
_0-d__0-2_蟇_豕__ts
  6
Continuous
 62
     7
100
AcDbLine
 10
3104.12907247511
 20
1577.758572297564
 30
0.0
 11
3197.12907247511
 21
1577.758572297564
 31
0.0
  0
LINE
  5
3DC
330
1D
100
AcDbEntity
  8
_1-a__0-2_蟇_豕___11-1
  6
Continuous
 62
     7
100
AcDbLine
 10
3197.12907247511
 20
1577.758572297564
 30
0.0
 11
3197.12907247511
 21
1534.758572297564
 31
0.0
  0
LINE
  5
3DD
330
1D
100
AcDbEntity
  8
_1-7__0-2_蟇_豕___8-1
  6
Continuous
 62
     7
100
AcDbLine
 10
3197.12907247511
 20
1534.758572297564
 30
0.0
 11
3104.12907247511
 21
1534.758572297564
 31
0.0
  0
LINE
  5
3DE
330
1D
100
AcDbEntity
  8
_1-b__0-2_蟇_豕___21-1
  6
Continuous
 62
     7
100
AcDbLine
 10
3104.12907247511
 20
1534.758572297564
 30
0.0
 11
3104.12907247511
 21
1577.758572297564
 31
0.0
  0
LINE
  5
3DF
330
1D
100
AcDbEntity
  8
_1-f__0-2_蟇_豕___26-1
  6
Continuous
 62
     7
100
AcDbLine
 10
3202.12907247511
 20
1577.758572297564
 30
0.0
 11
3295.12907247511
 21
1577.758572297564
 31
0.0
  0
LINE
  5
3E0
330
1D
100
AcDbEntity
  8
_1-b__0-2_蟇_豕___21-1
  6
Continuous
 62
     7
100
AcDbLine
 10
3295.12907247511
 20
1577.758572297564
 30
0.0
 11
3295.12907247511
 21
1534.758572297564
 31
0.0
  0
LINE
  5
3E1
330
1D
100
AcDbEntity
  8
_1-7__0-2_蟇_豕___8-1
  6
Continuous
 62
     7
100
AcDbLine
 10
3295.12907247511
 20
1534.758572297564
 30
0.0
 11
3202.12907247511
 21
1534.758572297564
 31
0.0
  0
LINE
  5
3E2
330
1D
100
AcDbEntity
  8
_1-6__0-2_蟇_豕___7-1
  6
Continuous
 62
     7
100
AcDbLine
 10
3202.12907247511
 20
1534.758572297564
 30
0.0
 11
3202.12907247511
 21
1577.758572297564
 31
0.0
  0
LINE
  5
3E3
330
1D
100
AcDbEntity
  8
_0-d__0-2_蟇_豕__ts
  6
Continuous
 62
     7
100
AcDbLine
 10
565.3290724751099
 20
2168.758572297565
 30
0.0
 11
565.3290724751099
 21
2261.758572297565
 31
0.0
  0
LINE
  5
3E4
330
1D
100
AcDbEntity
  8
_1-6__0-2_蟇_豕___7-1
  6
Continuous
 62
     7
100
AcDbLine
 10
565.3290724751099
 20
2261.758572297565
 30
0.0
 11
2365.32907247511
 21
2261.758572297565
 31
0.0
  0
LINE
  5
3E5
330
1D
100
AcDbEntity
  8
_1-a__0-2_蟇_豕___11-1
  6
Continuous
 62
     7
100
AcDbLine
 10
2365.32907247511
 20
2261.758572297565
 30
0.0
 11
2365.32907247511
 21
2168.758572297565
 31
0.0
  0
LINE
  5
3E6
330
1D
100
AcDbEntity
  8
_1-7__0-2_蟇_豕___8-1
  6
Continuous
 62
     7
100
AcDbLine
 10
2365.32907247511
 20
2168.758572297565
 30
0.0
 11
565.3290724751099
 21
2168.758572297565
 31
0.0
  0
LINE
  5
3E7
330
1D
100
AcDbEntity
  8
_1-d__0-2_蟇_豕___24-1
  6
Continuous
 62
     7
100
AcDbLine
 10
565.3290724751099
 20
2266.758572297565
 30
0.0
 11
565.3290724751099
 21
2359.758572297565
 31
0.0
  0
LINE
  5
3E8
330
1D
100
AcDbEntity
  8
_1-6__0-2_蟇_豕___7-1
  6
Continuous
 62
     7
100
AcDbLine
 10
565.3290724751099
 20
2359.758572297565
 30
0.0
 11
2365.32907247511
 21
2359.758572297565
 31
0.0
  0
LINE
  5
3E9
330
1D
100
AcDbEntity
  8
_1-7__0-2_蟇_豕___8-1
  6
Continuous
 62
     7
100
AcDbLine
 10
2365.32907247511
 20
2359.758572297565
 30
0.0
 11
2365.32907247511
 21
2266.758572297565
 31
0.0
  0
LINE
  5
3EA
330
1D
100
AcDbEntity
  8
_1-b__0-2_蟇_豕___21-1
  6
Continuous
 62
     7
100
AcDbLine
 10
2365.32907247511
 20
2266.758572297565
 30
0.0
 11
565.3290724751099
 21
2266.758572297565
 31
0.0
  0
LINE
  5
3EB
330
1D
100
AcDbEntity
  8
_1-b__0-2_蟇_豕___21-1
  6
Continuous
 62
     7
100
AcDbLine
 10
565.3290724751099
 20
2364.758572297565
 30
0.0
 11
565.3290724751099
 21
2457.758572297565
 31
0.0
  0
LINE
  5
3EC
330
1D
100
AcDbEntity
  8
_1-7__0-2_蟇_豕___8-1
  6
Continuous
 62
     7
100
AcDbLine
 10
565.3290724751099
 20
2457.758572297565
 30
0.0
 11
2365.32907247511
 21
2457.758572297565
 31
0.0
  0
LINE
  5
3ED
330
1D
100
AcDbEntity
  8
_1-7__0-2_蟇_豕___8-1
  6
Continuous
 62
     7
100
AcDbLine
 10
2365.32907247511
 20
2457.758572297565
 30
0.0
 11
2365.32907247511
 21
2364.758572297565
 31
0.0
  0
LINE
  5
3EE
330
1D
100
AcDbEntity
  8
_1-a__0-2_蟇_豕___11-1
  6
Continuous
 62
     7
100
AcDbLine
 10
2365.32907247511
 20
2364.758572297565
 30
0.0
 11
565.3290724751099
 21
2364.758572297565
 31
0.0
  0
LINE
  5
3EF
330
1D
100
AcDbEntity
  8
_1-7__0-2_蟇_豕___8-1
  6
Continuous
 62
     7
100
AcDbLine
 10
565.3290724751099
 20
2462.758572297565
 30
0.0
 11
565.3290724751099
 21
2555.758572297565
 31
0.0
  0
LINE
  5
3F0
330
1D
100
AcDbEntity
  8
_1-6__0-2_蟇_豕___7-1
  6
Continuous
 62
     7
100
AcDbLine
 10
565.3290724751099
 20
2555.758572297565
 30
0.0
 11
2365.32907247511
 21
2555.758572297565
 31
0.0
  0
LINE
  5
3F1
330
1D
100
AcDbEntity
  8
_1-e__0-2_蟇_豕___28-1
  6
Continuous
 62
     7
100
AcDbLine
 10
2365.32907247511
 20
2555.758572297565
 30
0.0
 11
2365.32907247511
 21
2462.758572297565
 31
0.0
  0
LINE
  5
3F2
330
1D
100
AcDbEntity
  8
_1-7__0-2_蟇_豕___8-1
  6
Continuous
 62
     7
100
AcDbLine
 10
2365.32907247511
 20
2462.758572297565
 30
0.0
 11
565.3290724751099
 21
2462.758572297565
 31
0.0
  0
LINE
  5
3F3
330
1D
100
AcDbEntity
  8
_0-2_蟇_豕__
  6
Continuous
 62
     7
100
AcDbLine
 10
2913.12907247511
 20
1534.758572297564
 30
0.0
 11
3344.38907247511
 21
1534.758572297564
 31
0.0
  0
LINE
  5
3F4
330
1D
100
AcDbEntity
  8
_1-7__0-2_蟇_豕___8-1
  6
Continuous
 62
     7
100
AcDbLine
 10
3344.38907247511
 20
1534.758572297564
 30
0.0
 11
3344.38907247511
 21
1529.758572297564
 31
0.0
  0
LINE
  5
3F5
330
1D
100
AcDbEntity
  8
_1-a__0-2_蟇_豕___11-1
  6
Continuous
 62
     7
100
AcDbLine
 10
3344.38907247511
 20
1529.758572297564
 30
0.0
 11
2913.12907247511
 21
1529.758572297564
 31
0.0
  0
LINE
  5
3F6
330
1D
100
AcDbEntity
  8
_0-2_蟇_豕__
  6
Continuous
 62
     7
100
AcDbLine
 10
2913.12907247511
 20
1529.758572297564
 30
0.0
 11
2913.12907247511
 21
1534.758572297564
 31
0.0
  0
LINE
  5
3F7
330
1D
100
AcDbEntity
  8
_0-1_荳_闊_
  6
Continuous
 62
     7
100
AcDbLine
 10
2913.12907247511
 20
1522.019894110788
 30
0.0
 11
3339.42907247511
 21
1456.747772297565
 31
0.0
  0
LINE
  5
3F8
330
1D
100
AcDbEntity
  8
_0-1_荳_闊_
  6
Continuous
 62
     7
100
AcDbLine
 10
2913.12907247511
 20
1530.019894110787
 30
0.0
 11
2913.12907247511
 21
1522.019894110788
 31
0.0
  0
INSERT
  5
3F9
330
1D
100
AcDbEntity
  8
_0-1_荳_闊_
100
AcDbBlockReference
  2
-050-繧_繝_繝_繝__29-1
 10
2034.055167287535
 20
1636.066261035768
 30
0.0
  0
INSERT
  5
3FA
330
1D
100
AcDbEntity
  8
_0-1_荳_闊_
100
AcDbBlockReference
  2
-051-繧_繝_繝_繝__30-1
 10
2034.055167287535
 20
1636.066261035768
 30
0.0
  0
LINE
  5
3FB
330
1D
100
AcDbEntity
  8
_0-f__0-2_蟇_豕___29-1
  6
2
 62
     7
100
AcDbLine
 10
565.3290724751099
 20
2617.758572297565
 30
0.0
 11
2365.32907247511
 21
2617.758572297565
 31
0.0
  0
LINE
  5
3FC
330
1D
100
AcDbEntity
  8
_1-0__0-2_蟇_豕___30-1
  6
2
 62
     7
100
AcDbLine
 10
2365.32907247511
 20
2617.758572297565
 30
0.0
 11
2365.32907247511
 21
2607.758572297564
 31
0.0
  0
LINE
  5
3FD
330
1D
100
AcDbEntity
  8
_0-f__0-2_蟇_豕___29-1
  6
2
 62
     7
100
AcDbLine
 10
2365.32907247511
 20
2607.758572297564
 30
0.0
 11
565.3290724751099
 21
2607.758572297564
 31
0.0
  0
LINE
  5
3FE
330
1D
100
AcDbEntity
  8
_0-d__0-2_蟇_豕__ts
  6
2
 62
     7
100
AcDbLine
 10
565.3290724751099
 20
2607.758572297564
 30
0.0
 11
565.3290724751099
 21
2617.758572297565
 31
0.0
  0
LINE
  5
3FF
330
1D
100
AcDbEntity
  8
_1-6__0-2_蟇_豕___7-1
  6
2
 62
     7
100
AcDbLine
 10
2214.52917247511
 20
2607.758572297564
 30
0.0
 11
2263.68907247511
 21
2607.758572297564
 31
0.0
  0
LINE
  5
400
330
1D
100
AcDbEntity
  8
_0-d__0-2_蟇_豕__ts
  6
2
 62
     7
100
AcDbLine
 10
2263.68907247511
 20
2607.758572297564
 30
0.0
 11
2263.68907247511
 21
2173.758572297565
 31
0.0
  0
LINE
  5
401
330
1D
100
AcDbEntity
  8
_1-0__0-2_蟇_豕___30-1
  6
2
 62
     7
100
AcDbLine
 10
2263.68907247511
 20
2173.758572297565
 30
0.0
 11
2214.52917247511
 21
2173.758572297565
 31
0.0
  0
LINE
  5
402
330
1D
100
AcDbEntity
  8
_1-0__0-2_蟇_豕___30-1
  6
2
 62
     7
100
AcDbLine
 10
2214.52917247511
 20
2173.758572297565
 30
0.0
 11
2214.52917247511
 21
2607.758572297564
 31
0.0
  0
LINE
  5
403
330
1D
100
AcDbEntity
  8
_1-0__0-2_蟇_豕___30-1
  6
2
 62
     7
100
AcDbLine
 10
1698.36927247511
 20
2607.758572297564
 30
0.0
 11
1747.52917247511
 21
2607.758572297564
 31
0.0
  0
LINE
  5
404
330
1D
100
AcDbEntity
  8
_0-d__0-2_蟇_豕__ts
  6
2
 62
     7
100
AcDbLine
 10
1747.52917247511
 20
2607.758572297564
 30
0.0
 11
1747.52917247511
 21
2173.758572297565
 31
0.0
  0
LINE
  5
405
330
1D
100
AcDbEntity
  8
_1-0__0-2_蟇_豕___30-1
  6
2
 62
     7
100
AcDbLine
 10
1747.52917247511
 20
2173.758572297565
 30
0.0
 11
1698.36927247511
 21
2173.758572297565
 31
0.0
  0
LINE
  5
406
330
1D
100
AcDbEntity
  8
_1-f__0-2_蟇_豕___26-1
  6
2
 62
     7
100
AcDbLine
 10
1698.36927247511
 20
2173.758572297565
 30
0.0
 11
1698.36927247511
 21
2607.758572297564
 31
0.0
  0
LINE
  5
407
330
1D
100
AcDbEntity
  8
_0-7__0-2_蟇_豕___16-1
  6
2
 62
     7
100
AcDbLine
 10
1182.20937247511
 20
2607.758572297564
 30
0.0
 11
1231.36927247511
 21
2607.758572297564
 31
0.0
  0
LINE
  5
408
330
1D
100
AcDbEntity
  8
_1-b__0-2_蟇_豕___21-1
  6
2
 62
     7
100
AcDbLine
 10
1231.36927247511
 20
2607.758572297564
 30
0.0
 11
1231.36927247511
 21
2173.758572297565
 31
0.0
  0
LINE
  5
409
330
1D
100
AcDbEntity
  8
_1-0__0-2_蟇_豕___30-1
  6
2
 62
     7
100
AcDbLine
 10
1231.36927247511
 20
2173.758572297565
 30
0.0
 11
1182.20937247511
 21
2173.758572297565
 31
0.0
  0
LINE
  5
40A
330
1D
100
AcDbEntity
  8
_1-f__0-2_蟇_豕___26-1
  6
2
 62
     7
100
AcDbLine
 10
1182.20937247511
 20
2173.758572297565
 30
0.0
 11
1182.20937247511
 21
2607.758572297564
 31
0.0
  0
LINE
  5
40B
330
1D
100
AcDbEntity
  8
_1-0__0-2_蟇_豕___30-1
  6
2
 62
     7
100
AcDbLine
 10
666.04947247511
 20
2607.758572297564
 30
0.0
 11
715.20937247511
 21
2607.758572297564
 31
0.0
  0
LINE
  5
40C
330
1D
100
AcDbEntity
  8
_1-6__0-2_蟇_豕___7-1
  6
2
 62
     7
100
AcDbLine
 10
715.20937247511
 20
2607.758572297564
 30
0.0
 11
715.20937247511
 21
2173.758572297565
 31
0.0
  0
LINE
  5
40D
330
1D
100
AcDbEntity
  8
_1-f__0-2_蟇_豕___26-1
  6
2
 62
     7
100
AcDbLine
 10
715.20937247511
 20
2173.758572297565
 30
0.0
 11
666.04947247511
 21
2173.758572297565
 31
0.0
  0
LINE
  5
40E
330
1D
100
AcDbEntity
  8
_1-6__0-2_蟇_豕___7-1
  6
2
 62
     7
100
AcDbLine
 10
666.04947247511
 20
2173.758572297565
 30
0.0
 11
666.04947247511
 21
2607.758572297564
 31
0.0
  0
TEXT
  5
40F
330
1D
100
AcDbEntity
  8
_1-0__0-2_蟇_豕___30-1
 62
     7
100
AcDbText
 10
1733.082618958903
 20
2733.284918919458
 30
0.0
 40
24.37060546875
  1
Tバー:アルミ鋳物 ステンシェルFT塗装
100
AcDbText
  0
TEXT
  5
410
330
1D
100
AcDbEntity
  8
_0-1_荳_闊_
 62
     7
100
AcDbText
 10
1722.041061623295
 20
2079.870054748238
 30
0.0
 40
24.37060546875
  1
座面:木粉一体成型アルミ材93×43
100
AcDbText
  0
TEXT
  5
411
330
1D
100
AcDbEntity
  8
_1-0__0-2_蟇_豕___30-1
 62
     7
100
AcDbText
 10
1693.507512640911
 20
1318.153804748237
 30
0.0
 40
24.37060546875
  1
受け材:ステンレスFB50×5 
100
AcDbText
  0
TEXT
  5
412
330
1D
100
AcDbEntity
  8
_0-1_荳_闊_
 62
     7
100
AcDbText
 10
2851.721862705159
 20
310.2383443691015
 30
0.0
 40
32.494140625
  1
s=1/10
100
AcDbText
  0
TEXT
  5
413
330
1D
100
AcDbEntity
  8
_0-1_荳_闊_
 62
     7
100
AcDbText
 10
2203.72186270516
 20
310.2383443691015
 30
0.0
 40
32.494140625
  1
キアルベンチ KIB-03 土新建材
 41
0.9
100
AcDbText
  0
TEXT
  5
414
330
1D
100
AcDbEntity
  8
_0-1_荳_闊_
 62
     7
100
AcDbText
 10
1009.425967265231
 20
895.8200455637001
 30
0.0
 40
21.66276041666666
  1
基礎コンクリート別途
100
AcDbText
  0
TEXT
  5
415
330
1D
100
AcDbEntity
  8
_1-a__0-2_蟇_豕___11-1
 62
     7
100
AcDbText
 10
937.38017247511
 20
1272.61256409444
 30
0.0
 40
24.37060546875
  1
支柱:アルミ鋳物 ステンシェルFT塗装
100
AcDbText
  0
ENDSEC
  0
SECTION
  2
OBJECTS
  0
DICTIONARY
  5
C
330
0
100
AcDbDictionary
281
     1
  3
ACAD_2007HEADERVARS_RT
350
4F7
  3
ACAD_CIP_PREVIOUS_PRODUCT_INFO
350
4E7
  3
ACAD_COLOR
350
4E0
  3
ACAD_DETAILVIEWSTYLE
350
45E
  3
ACAD_GROUP
350
D
  3
ACAD_LAYOUT
350
1A
  3
ACAD_MATERIAL
350
44F
  3
ACAD_MLEADERSTYLE
350
455
  3
ACAD_MLINESTYLE
350
17
  3
ACAD_PLOTSETTINGS
350
19
  3
ACAD_PLOTSTYLENAME
350
E
  3
ACAD_SCALELIST
350
420
  3
ACAD_SECTIONVIEWSTYLE
350
45F
  3
ACAD_TABLESTYLE
350
453
  3
ACAD_VISUALSTYLE
350
436
  3
ACDB_RECOMPOSE_DATA
350
4F5
  3
AcDbVariableDictionary
350
459
  3
DWGPROPS
350
4F6
  0
DICTIONARY
  5
4F7
102
{ACAD_REACTORS
330
C
102
}
330
C
100
AcDbDictionary
281
     1
  3
INTERFERECOLOR
350
4F8
  0
XRECORD
  5
4E7
102
{ACAD_REACTORS
330
C
102
}
330
C
100
AcDbXrecord
280
     1
300
ACD
300
2022
300

  0
DICTIONARY
  5
4E0
102
{ACAD_REACTORS
330
C
102
}
330
C
100
AcDbDictionary
281
     1
  0
DICTIONARY
  5
45E
102
{ACAD_REACTORS
330
C
102
}
330
C
100
AcDbDictionary
281
     1
  3
Imperial24
350
4E2
  0
DICTIONARY
  5
D
102
{ACAD_REACTORS
330
C
102
}
330
C
100
AcDbDictionary
281
     1
  0
DICTIONARY
  5
1A
102
{ACAD_REACTORS
330
C
102
}
330
C
100
AcDbDictionary
281
     1
  3
Model
350
1E
  3
レイアウト 1
350
1C
  0
DICTIONARY
  5
44F
102
{ACAD_REACTORS
330
C
102
}
330
C
100
AcDbDictionary
281
     1
  3
ByBlock
350
451
  3
ByLayer
350
450
  3
Global
350
452
  0
DICTIONARY
  5
455
102
{ACAD_REACTORS
330
C
102
}
330
C
100
AcDbDictionary
281
     1
  3
Standard
350
456
  0
DICTIONARY
  5
17
102
{ACAD_REACTORS
330
C
102
}
330
C
100
AcDbDictionary
281
     1
  3
Standard
350
18
  0
DICTIONARY
  5
19
102
{ACAD_REACTORS
330
C
102
}
330
C
100
AcDbDictionary
281
     1
  0
ACDBDICTIONARYWDFLT
  5
E
102
{ACAD_REACTORS
330
C
102
}
330
C
100
AcDbDictionary
281
     1
  3
ByColor
350
11
  3
Normal
350
F
100
AcDbDictionaryWithDefault
340
F
  0
DICTIONARY
  5
420
102
{ACAD_REACTORS
330
C
102
}
330
C
100
AcDbDictionary
281
     1
  3
A0
350
421
  3
B7
350
422
  3
B8
350
423
  3
B9
350
424
  3
C0
350
425
  3
C1
350
426
  3
C2
350
427
  3
C3
350
428
  3
C4
350
429
  3
C5
350
42A
  3
C6
350
42B
  3
C7
350
42C
  3
C8
350
42D
  3
C9
350
42E
  3
D0
350
42F
  3
D1
350
430
  3
D2
350
431
  0
DICTIONARY
  5
45F
102
{ACAD_REACTORS
330
C
102
}
330
C
100
AcDbDictionary
281
     1
  3
Imperial24
350
4E1
  0
DICTIONARY
  5
453
102
{ACAD_REACTORS
330
C
102
}
330
C
100
AcDbDictionary
281
     1
  3
Standard
350
454
  0
DICTIONARY
  5
436
102
{ACAD_REACTORS
330
C
102
}
330
C
100
AcDbDictionary
281
     1
  3
2dWireframe
350
43B
  3
Basic
350
43E
  3
Brighten
350
442
  3
ColorChange
350
446
  3
Conceptual
350
440
  3
Dim
350
441
  3
EdgeColorOff
350
449
  3
Facepattern
350
445
  3
Flat
350
437
  3
FlatWithEdges
350
438
  3
Gouraud
350
439
  3
GouraudWithEdges
350
43A
  3
Hidden
350
43D
  3
JitterOff
350
447
  3
Linepattern
350
444
  3
OverhangOff
350
448
  3
Realistic
350
43F
  3
Shaded
350
44E
  3
Shaded with edges
350
44D
  3
Shades of Gray
350
44A
  3
Sketchy
350
44B
  3
Thicken
350
443
  3
Wireframe
350
43C
  3
X-Ray
350
44C
  0
XRECORD
  5
4F5
102
{ACAD_REACTORS
330
C
102
}
330
C
100
AcDbXrecord
280
     1
 90
        1
330
454
  0
DICTIONARY
  5
459
102
{ACAD_REACTORS
330
C
102
}
330
C
100
AcDbDictionary
281
     1
  3
CANNOSCALE
350
45A
  3
CMLEADERSTYLE
350
45C
  3
CTABLESTYLE
350
45B
  3
CVIEWDETAILSTYLE
350
4E8
  3
CVIEWSECTIONSTYLE
350
4E9
  3
DIMASSOC
350
4F0
  3
HIDETEXT
350
4EF
  3
INDEXCTL
350
4EE
  3
LAYEREVAL
350
4EB
  3
LAYERNOTIFY
350
4EC
  3
LIGHTINGUNITS
350
4EA
  3
MSLTSCALE
350
45D
  3
SOLIDHIST
350
4F1
  3
SORTENTS
350
4ED
  3
XCLIPFRAME
350
4A2
  0
XRECORD
  5
4F6
102
{ACAD_REACTORS
330
C
102
}
330
C
100
AcDbXrecord
280
     1
  1
DWGPROPS COOKIE
  2

  3

  4

  6

  7

  8
81901
  9

300
=
301
=
302
=
303
=
304
=
305
=
306
=
307
=
308
=
309
=
 40
0.0010371990740741
 41
2459888.847164352
 42
2460176.462800926
  1

 90
        0
  0
XRECORD
  5
4F8
102
{ACAD_REACTORS
330
4F7
102
}
330
4F7
100
AcDbXrecord
280
     1
1004
1800000001000000000000C0000000000000000000000000
  0
ACDBDETAILVIEWSTYLE
  5
4E2
102
{ACAD_XDICTIONARY
360
536
102
}
102
{ACAD_REACTORS
330
45E
102
}
330
45E
100
AcDbModelDocViewStyle
 70
     0
  3
Imperial24
290
     0
100
AcDbDetailViewStyle
 70
     0
 71
     0
 90
        3
 71
     1
340
12
 40
0.24
340
0
 40
0.24
300

 40
0.36
280
     3
 71
     2
340
16
 90
       25
 71
     3
340
12
 40
0.24
 90
        1
 40
0.75
 90
        1
300
%<\AcVar ViewType \f "%tc1">% %<\AcVar ViewDetailId>%\PSCALE %<\AcVar ViewScale \f "%sn">%
 71
     4
340
16
 90
       25
340
16
 90
       25
280
     0
  0
LAYOUT
  5
1E
102
{ACAD_XDICTIONARY
360
4FB
102
}
102
{ACAD_REACTORS
330
1A
102
}
330
1A
100
AcDbPlotSettings
  1

  2
none_device
  4
ISO_A4_(210.00_x_297.00_MM)
  6

 40
7.5
 41
20.0
 42
7.5
 43
20.0
 44
210.0
 45
297.0
 46
0.0
 47
0.0
 48
0.0
 49
0.0
140
0.0
141
0.0
142
1.0
143
1.0
 70
  1712
 72
     0
 73
     1
 74
     0
  7

 75
     0
147
1.0
148
0.0
149
0.0
100
AcDbLayout
  1
Model
 70
     1
 71
     0
 10
0.0
 20
0.0
 11
12.0
 21
9.0
 12
0.0
 22
0.0
 32
0.0
 14
137.2910827124661
 24
267.0129277024356
 34
0.0
 15
3994.526982873864
 25
2757.655524388208
 35
0.0
146
0.0
 13
0.0
 23
0.0
 33
0.0
 16
1.0
 26
0.0
 36
0.0
 17
0.0
 27
1.0
 37
0.0
 76
     0
330
1D
331
416
  0
LAYOUT
  5
1C
102
{ACAD_XDICTIONARY
360
4F9
102
}
102
{ACAD_REACTORS
330
1A
102
}
330
1A
100
AcDbPlotSettings
  1

  2
none_device
  4
ISO_A4_(210.00_x_297.00_MM)
  6

 40
7.5
 41
20.0
 42
7.5
 43
20.0
 44
210.0
 45
297.0
 46
0.0
 47
0.0
 48
0.0
 49
0.0
140
0.0
141
0.0
142
1.0
143
1.0
 70
   688
 72
     0
 73
     1
 74
     5
  7

 75
    16
147
1.0
148
0.0
149
0.0
100
AcDbLayout
  1
レイアウト 1
 70
     1
 71
     1
 10
0.0
 20
0.0
 11
12.0
 21
9.0
 12
0.0
 22
0.0
 32
0.0
 14
1.000000000000000E+20
 24
1.000000000000000E+20
 34
1.000000000000000E+20
 15
-1.000000000000000E+20
 25
-1.000000000000000E+20
 35
-1.000000000000000E+20
146
0.0
 13
0.0
 23
0.0
 33
0.0
 16
1.0
 26
0.0
 36
0.0
 17
0.0
 27
1.0
 37
0.0
 76
     0
330
1B
  0
MATERIAL
  5
451
102
{ACAD_XDICTIONARY
360
52F
102
}
102
{ACAD_REACTORS
330
44F
102
}
330
44F
100
AcDbMaterial
  1
ByBlock
 73
     1
 78
     1
172
     1
176
     1
270
     1
274
     1
  0
MATERIAL
  5
450
102
{ACAD_XDICTIONARY
360
52D
102
}
102
{ACAD_REACTORS
330
44F
102
}
330
44F
100
AcDbMaterial
  1
ByLayer
 73
     1
 78
     1
172
     1
176
     1
270
     1
274
     1
  0
MATERIAL
  5
452
102
{ACAD_XDICTIONARY
360
531
102
}
102
{ACAD_REACTORS
330
44F
102
}
330
44F
100
AcDbMaterial
  1
Global
 73
     1
 78
     1
172
     1
176
     1
270
     1
274
     1
  0
MLEADERSTYLE
  5
456
102
{ACAD_REACTORS
330
455
102
}
330
455
100
AcDbMLeaderStyle
170
     2
171
     1
172
     0
 90
        2
 40
0.0
 41
0.0
173
     1
 91
-1056964608
340
16
 92
       -2
290
     1
 42
0.09
291
     1
 43
0.36
  3
Standard
 44
0.18
300

342
12
174
     1
178
     6
175
     1
176
     0
 93
-1056964608
 45
0.18
292
     0
297
     0
 46
0.18
 94
-1056964608
 47
1.0
 49
1.0
140
1.0
293
     1
141
0.0
294
     1
177
     0
142
1.0
295
     0
296
     0
143
0.125
1001
ACAD_MLEADERVER
1070
     2
  0
MLINESTYLE
  5
18
102
{ACAD_REACTORS
330
17
102
}
330
17
100
AcDbMlineStyle
  2
STANDARD
 70
     0
  3

 62
   256
 51
90.0
 52
90.0
 71
     2
 49
0.5
 62
   256
  6
BYLAYER
 49
-0.5
 62
   256
  6
BYLAYER
  0
ACDBPLACEHOLDER
  5
11
102
{ACAD_REACTORS
330
E
102
}
330
E
  0
ACDBPLACEHOLDER
  5
F
102
{ACAD_REACTORS
330
E
102
}
330
E
  0
SCALE
  5
421
102
{ACAD_REACTORS
330
420
102
}
330
420
100
AcDbScale
 70
     0
300
1:1
140
1.0
141
1.0
290
     1
  0
SCALE
  5
422
102
{ACAD_REACTORS
330
420
102
}
330
420
100
AcDbScale
 70
     0
300
1/128" = 1'-0"
140
0.0078125
141
12.0
290
     0
  0
SCALE
  5
423
102
{ACAD_REACTORS
330
420
102
}
330
420
100
AcDbScale
 70
     0
300
1/64" = 1'-0"
140
0.015625
141
12.0
290
     0
  0
SCALE
  5
424
102
{ACAD_REACTORS
330
420
102
}
330
420
100
AcDbScale
 70
     0
300
1/32" = 1'-0"
140
0.03125
141
12.0
290
     0
  0
SCALE
  5
425
102
{ACAD_REACTORS
330
420
102
}
330
420
100
AcDbScale
 70
     0
300
1/16" = 1'-0"
140
0.0625
141
12.0
290
     0
  0
SCALE
  5
426
102
{ACAD_REACTORS
330
420
102
}
330
420
100
AcDbScale
 70
     0
300
3/32" = 1'-0"
140
0.09375
141
12.0
290
     0
  0
SCALE
  5
427
102
{ACAD_REACTORS
330
420
102
}
330
420
100
AcDbScale
 70
     0
300
1/8" = 1'-0"
140
0.125
141
12.0
290
     0
  0
SCALE
  5
428
102
{ACAD_REACTORS
330
420
102
}
330
420
100
AcDbScale
 70
     0
300
3/16" = 1'-0"
140
0.1875
141
12.0
290
     0
  0
SCALE
  5
429
102
{ACAD_REACTORS
330
420
102
}
330
420
100
AcDbScale
 70
     0
300
1/4" = 1'-0"
140
0.25
141
12.0
290
     0
  0
SCALE
  5
42A
102
{ACAD_REACTORS
330
420
102
}
330
420
100
AcDbScale
 70
     0
300
3/8" = 1'-0"
140
0.375
141
12.0
290
     0
  0
SCALE
  5
42B
102
{ACAD_REACTORS
330
420
102
}
330
420
100
AcDbScale
 70
     0
300
1/2" = 1'-0"
140
0.5
141
12.0
290
     0
  0
SCALE
  5
42C
102
{ACAD_REACTORS
330
420
102
}
330
420
100
AcDbScale
 70
     0
300
3/4" = 1'-0"
140
0.75
141
12.0
290
     0
  0
SCALE
  5
42D
102
{ACAD_REACTORS
330
420
102
}
330
420
100
AcDbScale
 70
     0
300
1" = 1'-0"
140
1.0
141
12.0
290
     0
  0
SCALE
  5
42E
102
{ACAD_REACTORS
330
420
102
}
330
420
100
AcDbScale
 70
     0
300
1-1/2" = 1'-0"
140
1.5
141
12.0
290
     0
  0
SCALE
  5
42F
102
{ACAD_REACTORS
330
420
102
}
330
420
100
AcDbScale
 70
     0
300
3" = 1'-0"
140
3.0
141
12.0
290
     0
  0
SCALE
  5
430
102
{ACAD_REACTORS
330
420
102
}
330
420
100
AcDbScale
 70
     0
300
6" = 1'-0"
140
6.0
141
12.0
290
     0
  0
SCALE
  5
431
102
{ACAD_REACTORS
330
420
102
}
330
420
100
AcDbScale
 70
     0
300
1'-0" = 1'-0"
140
12.0
141
12.0
290
     0
  0
ACDBSECTIONVIEWSTYLE
  5
4E1
102
{ACAD_XDICTIONARY
360
534
102
}
102
{ACAD_REACTORS
330
45F
102
}
330
45F
100
AcDbModelDocViewStyle
 70
     0
  3
Imperial24
290
     0
100
AcDbSectionViewStyle
 70
     0
 71
     0
 90
       78
 71
     1
340
12
 40
0.24
340
0
340
0
 40
0.24
300
I, O, Q, S, X, Z
 40
0.48
 90
        3
 40
0.18
 90
        1
 71
     2
340
16
 90
       25
340
16
 90
       50
 40
0.24
 40
0.0
 40
0.24
 71
     3
340
12
 40
0.24
 90
        1
 40
0.75
 90
        1
300
%<\AcVar ViewType \f "%tc1">% %<\AcVar ViewSectionStartId>%-%<\AcVar ViewSectionEndId>%\PSCALE %<\AcVar ViewScale \f "%sn">%
 71
     4
300
ANSI31
 40
1.0
 90
        0
290
     0
290
     0
 90
        6
 40
0.0
 40
1.570796326794896
 40
0.2617993877991494
 40
1.308996938995747
 40
-0.2617993877991494
 40
1.832595714594046
  0
TABLESTYLE
  5
454
102
{ACAD_XDICTIONARY
360
4F3
102
}
102
{ACAD_REACTORS
330
453
102
}
330
453
100
AcDbTableStyle
  3
Standard
 70
     0
 71
     0
 40
0.06
 41
0.06
280
     0
281
     0
  7
STANDARD
140
0.18
170
     2
 62
     0
 63
     7
283
     0
274
    -2
284
     1
 64
     0
275
    -2
285
     1
 65
     0
276
    -2
286
     1
 66
     0
277
    -2
287
     1
 67
     0
278
    -2
288
     1
 68
     0
279
    -2
289
     1
 69
     0
  7
STANDARD
140
0.25
170
     5
 62
     0
 63
     7
283
     0
274
    -2
284
     1
 64
     0
275
    -2
285
     1
 65
     0
276
    -2
286
     1
 66
     0
277
    -2
287
     1
 67
     0
278
    -2
288
     1
 68
     0
279
    -2
289
     1
 69
     0
  7
STANDARD
140
0.18
170
     5
 62
     0
 63
     7
283
     0
274
    -2
284
     1
 64
     0
275
    -2
285
     1
 65
     0
276
    -2
286
     1
 66
     0
277
    -2
287
     1
 67
     0
278
    -2
288
     1
 68
     0
279
    -2
289
     1
 69
     0
  0
VISUALSTYLE
  5
43B
102
{ACAD_XDICTIONARY
360
505
102
}
102
{ACAD_REACTORS
330
436
102
}
330
436
100
AcDbVisualStyle
  2
2dWireframe
 70
     4
 71
     0
 72
     2
 73
     0
 90
        0
 40
-0.6
 41
-30.0
 62
     5
 63
     7
 74
     1
 91
        4
 64
     7
 65
   257
 75
     1
175
     1
 42
1.0
 92
        0
 66
   257
 43
1.0
 76
     1
 77
     6
 78
     2
 67
     7
 79
     5
170
     0
171
     0
290
     0
174
     0
 93
        1
 44
0.0
173
     0
291
     0
 45
0.0
1001
ACAD
1000
AcDbSavedByObjectVersion
1070
     0
  0
VISUALSTYLE
  5
43E
102
{ACAD_XDICTIONARY
360
50B
102
}
102
{ACAD_REACTORS
330
436
102
}
330
436
100
AcDbVisualStyle
  2
Basic
 70
     7
 71
     1
 72
     0
 73
     1
 90
        0
 40
-0.6
 41
-30.0
 62
     5
 63
     7
 74
     0
 91
        4
 64
     7
 65
   257
 75
     1
175
     1
 42
1.0
 92
        8
 66
     7
 43
1.0
 76
     1
 77
     6
 78
     2
 67
     7
 79
     5
170
     0
171
     0
290
     0
174
     0
 93
        1
 44
0.0
173
     0
291
     1
 45
0.0
1001
ACAD
1000
AcDbSavedByObjectVersion
1070
     0
  0
VISUALSTYLE
  5
442
102
{ACAD_XDICTIONARY
360
513
102
}
102
{ACAD_REACTORS
330
436
102
}
330
436
100
AcDbVisualStyle
  2
Brighten
 70
    12
 71
     2
 72
     2
 73
     0
 90
        0
 40
-0.6
 41
-30.0
 62
     5
 63
     7
 74
     1
 91
        4
 64
     7
 65
   257
 75
     1
175
     1
 42
1.0
 92
        8
 66
     7
 43
1.0
 76
     1
 77
     6
 78
     2
 67
     7
 79
     5
170
     0
171
     0
290
     0
174
     0
 93
        1
 44
50.0
173
     0
291
     1
 45
0.0
1001
ACAD
1000
AcDbSavedByObjectVersion
1070
     0
  0
VISUALSTYLE
  5
446
102
{ACAD_XDICTIONARY
360
51B
102
}
102
{ACAD_REACTORS
330
436
102
}
330
436
100
AcDbVisualStyle
  2
ColorChange
 70
    16
 71
     2
 72
     2
 73
     3
 90
        0
 40
-0.6
 41
-30.0
 62
     5
 63
     8
 74
     1
 91
        4
 64
     7
 65
   257
 75
     1
175
     1
 42
1.0
 92
        8
 66
     8
 43
1.0
 76
     1
 77
     6
 78
     2
 67
     7
 79
     5
170
     0
171
     0
290
     0
174
     0
 93
        1
 44
0.0
173
     0
291
     1
 45
0.0
1001
ACAD
1000
AcDbSavedByObjectVersion
1070
     0
  0
VISUALSTYLE
  5
440
102
{ACAD_XDICTIONARY
360
50F
102
}
102
{ACAD_REACTORS
330
436
102
}
330
436
100
AcDbVisualStyle
  2
Conceptual
 70
     9
 71
     3
 72
     2
 73
     0
 90
        0
 40
-0.6
 41
-30.0
 62
     5
 63
     7
 74
     2
 91
        2
 64
     7
 65
   257
 75
     1
175
     1
 42
40.0
 92
        8
 66
     7
 43
1.0
 76
     1
 77
     6
 78
     2
 67
     7
 79
     3
170
     0
171
     0
290
     0
174
     0
 93
        1
 44
0.0
173
     0
291
     0
 45
0.0
1001
ACAD
1000
AcDbSavedByObjectVersion
1070
     0
  0
VISUALSTYLE
  5
441
102
{ACAD_XDICTIONARY
360
511
102
}
102
{ACAD_REACTORS
330
436
102
}
330
436
100
AcDbVisualStyle
  2
Dim
 70
    11
 71
     2
 72
     2
 73
     0
 90
        0
 40
-0.6
 41
-30.0
 62
     5
 63
     7
 74
     1
 91
        4
 64
     7
 65
   257
 75
     1
175
     1
 42
1.0
 92
        8
 66
     7
 43
1.0
 76
     1
 77
     6
 78
     2
 67
     7
 79
     5
170
     0
171
     0
290
     0
174
     0
 93
        1
 44
-50.0
173
     0
291
     1
 45
0.0
1001
ACAD
1000
AcDbSavedByObjectVersion
1070
     0
  0
VISUALSTYLE
  5
449
102
{ACAD_XDICTIONARY
360
521
102
}
102
{ACAD_REACTORS
330
436
102
}
330
436
100
AcDbVisualStyle
  2
EdgeColorOff
 70
    22
 71
     2
 72
     2
 73
     0
 90
        0
 40
-0.6
 41
-30.0
 62
     5
 63
     7
 74
     1
 91
        4
 64
     7
 65
   257
 75
     1
175
     1
 42
1.0
 92
        8
 66
     7
 43
1.0
 76
     1
 77
     6
 78
     2
 67
     7
 79
     5
170
     0
171
     0
290
     0
174
     0
 93
        1
 44
0.0
173
     0
291
     1
 45
0.0
1001
ACAD
1000
AcDbSavedByObjectVersion
1070
     0
  0
VISUALSTYLE
  5
445
102
{ACAD_XDICTIONARY
360
519
102
}
102
{ACAD_REACTORS
330
436
102
}
330
436
100
AcDbVisualStyle
  2
Facepattern
 70
    15
 71
     2
 72
     2
 73
     0
 90
        0
 40
-0.6
 41
-30.0
 62
     5
 63
     7
 74
     1
 91
        4
 64
     7
 65
   257
 75
     1
175
     1
 42
1.0
 92
        8
 66
     7
 43
1.0
 76
     1
 77
     6
 78
     2
 67
     7
 79
     5
170
     0
171
     0
290
     0
174
     0
 93
        1
 44
0.0
173
     0
291
     1
 45
0.0
1001
ACAD
1000
AcDbSavedByObjectVersion
1070
     0
  0
VISUALSTYLE
  5
437
102
{ACAD_XDICTIONARY
360
4FD
102
}
102
{ACAD_REACTORS
330
436
102
}
330
436
100
AcDbVisualStyle
  2
Flat
 70
     0
 71
     2
 72
     1
 73
     1
 90
        2
 40
-0.6
 41
30.0
 62
     5
 63
     7
 74
     0
 91
        4
 64
     7
 65
   257
 75
     1
175
     1
 42
1.0
 92
        8
 66
     7
 43
1.0
 76
     1
 77
     6
 78
     2
 67
     7
 79
     5
170
     0
171
     0
290
     0
174
     0
 93
       13
 44
0.0
173
     0
291
     1
 45
0.0
1001
ACAD
1000
AcDbSavedByObjectVersion
1070
     0
  0
VISUALSTYLE
  5
438
102
{ACAD_XDICTIONARY
360
4FF
102
}
102
{ACAD_REACTORS
330
436
102
}
330
436
100
AcDbVisualStyle
  2
FlatWithEdges
 70
     1
 71
     2
 72
     1
 73
     1
 90
        2
 40
-0.6
 41
30.0
 62
     5
 63
     7
 74
     1
 91
        4
 64
     7
 65
   257
 75
     1
175
     1
 42
1.0
 92
        0
 66
   257
 43
1.0
 76
     1
 77
     6
 78
     2
 67
     7
 79
     5
170
     0
171
     0
290
     0
174
     0
 93
       13
 44
0.0
173
     0
291
     1
 45
0.0
1001
ACAD
1000
AcDbSavedByObjectVersion
1070
     0
  0
VISUALSTYLE
  5
439
102
{ACAD_XDICTIONARY
360
501
102
}
102
{ACAD_REACTORS
330
436
102
}
330
436
100
AcDbVisualStyle
  2
Gouraud
 70
     2
 71
     2
 72
     2
 73
     1
 90
        2
 40
-0.6
 41
30.0
 62
     5
 63
     7
 74
     0
 91
        4
 64
     7
 65
   257
 75
     1
175
     1
 42
1.0
 92
        0
 66
     7
 43
1.0
 76
     1
 77
     6
 78
     2
 67
     7
 79
     5
170
     0
171
     0
290
     0
174
     0
 93
       13
 44
0.0
173
     0
291
     1
 45
0.0
1001
ACAD
1000
AcDbSavedByObjectVersion
1070
     0
  0
VISUALSTYLE
  5
43A
102
{ACAD_XDICTIONARY
360
503
102
}
102
{ACAD_REACTORS
330
436
102
}
330
436
100
AcDbVisualStyle
  2
GouraudWithEdges
 70
     3
 71
     2
 72
     2
 73
     1
 90
        2
 40
-0.6
 41
30.0
 62
     5
 63
     7
 74
     1
 91
        4
 64
     7
 65
   257
 75
     1
175
     1
 42
1.0
 92
        0
 66
   257
 43
1.0
 76
     1
 77
     6
 78
     2
 67
     7
 79
     5
170
     0
171
     0
290
     0
174
     0
 93
       13
 44
0.0
173
     0
291
     1
 45
0.0
1001
ACAD
1000
AcDbSavedByObjectVersion
1070
     0
  0
VISUALSTYLE
  5
43D
102
{ACAD_XDICTIONARY
360
509
102
}
102
{ACAD_REACTORS
330
436
102
}
330
436
100
AcDbVisualStyle
  2
Hidden
 70
     6
 71
     1
 72
     2
 73
     2
 90
        0
 40
-0.6
 41
-30.0
 62
     5
 63
     7
 74
     2
 91
        2
 64
     7
 65
   257
 75
     2
175
     1
 42
40.0
 92
        0
 66
   257
 43
1.0
 76
     1
 77
     6
 78
     2
 67
     7
 79
     3
170
     0
171
     0
290
     0
174
     0
 93
        1
 44
0.0
173
     0
291
     0
 45
0.0
1001
ACAD
1000
AcDbSavedByObjectVersion
1070
     0
  0
VISUALSTYLE
  5
447
102
{ACAD_XDICTIONARY
360
51D
102
}
102
{ACAD_REACTORS
330
436
102
}
330
436
100
AcDbVisualStyle
  2
JitterOff
 70
    20
 71
     2
 72
     2
 73
     0
 90
        0
 40
-0.6
 41
-30.0
 62
     5
 63
     7
 74
     1
 91
        4
 64
     7
 65
   257
 75
     1
175
     1
 42
1.0
 92
       10
 66
     7
 43
1.0
 76
     1
 77
     6
 78
     2
 67
     7
 79
     5
170
     0
171
     0
290
     0
174
     0
 93
        1
 44
0.0
173
     0
291
     1
 45
0.0
1001
ACAD
1000
AcDbSavedByObjectVersion
1070
     0
  0
VISUALSTYLE
  5
444
102
{ACAD_XDICTIONARY
360
517
102
}
102
{ACAD_REACTORS
330
436
102
}
330
436
100
AcDbVisualStyle
  2
Linepattern
 70
    14
 71
     2
 72
     2
 73
     0
 90
        0
 40
-0.6
 41
-30.0
 62
     5
 63
     7
 74
     1
 91
        4
 64
     7
 65
   257
 75
     7
175
     7
 42
1.0
 92
        8
 66
     7
 43
1.0
 76
     1
 77
     6
 78
     2
 67
     7
 79
     5
170
     0
171
     0
290
     0
174
     0
 93
        1
 44
0.0
173
     0
291
     1
 45
0.0
1001
ACAD
1000
AcDbSavedByObjectVersion
1070
     0
  0
VISUALSTYLE
  5
448
102
{ACAD_XDICTIONARY
360
51F
102
}
102
{ACAD_REACTORS
330
436
102
}
330
436
100
AcDbVisualStyle
  2
OverhangOff
 70
    21
 71
     2
 72
     2
 73
     0
 90
        0
 40
-0.6
 41
-30.0
 62
     5
 63
     7
 74
     1
 91
        4
 64
     7
 65
   257
 75
     1
175
     1
 42
1.0
 92
        9
 66
     7
 43
1.0
 76
     1
 77
     6
 78
     2
 67
     7
 79
     5
170
     0
171
     0
290
     0
174
     0
 93
        1
 44
0.0
173
     0
291
     1
 45
0.0
1001
ACAD
1000
AcDbSavedByObjectVersion
1070
     0
  0
VISUALSTYLE
  5
43F
102
{ACAD_XDICTIONARY
360
50D
102
}
102
{ACAD_REACTORS
330
436
102
}
330
436
100
AcDbVisualStyle
  2
Realistic
 70
     8
 71
     2
 72
     3
 73
     0
 90
        2
 40
-0.6
 41
30.0
 62
     5
 63
     7
 74
     0
 91
        0
 64
     7
 65
   257
 75
     1
175
     1
 42
1.0
 92
        8
 66
   257
 43
1.0
 76
     1
 77
     6
 78
     2
 67
     7
 79
     3
170
     0
171
     0
290
     0
174
     0
 93
       13
 44
0.0
173
     0
291
     0
 45
0.0
1001
ACAD
1000
AcDbSavedByObjectVersion
1070
     0
  0
VISUALSTYLE
  5
44E
102
{ACAD_XDICTIONARY
360
52B
102
}
102
{ACAD_REACTORS
330
436
102
}
330
436
100
AcDbVisualStyle
  2
Shaded
 70
    27
 71
     2
 72
     2
 73
     1
 90
        2
 40
-0.6
 41
30.0
 62
     5
 63
     7
 74
     0
 91
        4
 64
     7
 65
   257
 75
     1
175
     1
 42
1.0
 92
        8
 66
   257
 43
1.0
 76
     1
 77
     6
 78
     2
 67
   251
 79
     3
170
     0
171
     0
290
     0
174
     0
 93
        5
 44
0.0
173
     0
291
     0
 45
0.0
1001
ACAD
1000
AcDbSavedByObjectVersion
1070
     0
  0
VISUALSTYLE
  5
44D
102
{ACAD_XDICTIONARY
360
529
102
}
102
{ACAD_REACTORS
330
436
102
}
330
436
100
AcDbVisualStyle
  2
Shaded with edges
 70
    26
 71
     2
 72
     2
 73
     1
 90
        2
 40
-0.6
 41
30.0
 62
     5
 63
     7
 74
     1
 91
        2
 64
     7
 65
   257
 75
     2
175
     1
 42
1.0
 92
        8
 66
   257
 43
1.0
 76
     1
 77
     6
 78
     2
 67
     7
 79
     3
170
     0
171
     0
290
     0
174
     0
 93
        5
 44
0.0
173
     0
291
     0
 45
0.0
1001
ACAD
1000
AcDbSavedByObjectVersion
1070
     0
  0
VISUALSTYLE
  5
44A
102
{ACAD_XDICTIONARY
360
523
102
}
102
{ACAD_REACTORS
330
436
102
}
330
436
100
AcDbVisualStyle
  2
Shades of Gray
 70
    23
 71
     2
 72
     2
 73
     3
 90
        0
 40
-0.6
 41
-30.0
 62
     5
 63
     7
 74
     2
 91
        2
 64
     7
 65
     7
 75
     1
175
     1
 42
40.0
 92
        8
 66
     7
 43
1.0
 76
     1
 77
     6
 78
     2
 67
     7
 79
     3
170
     0
171
     0
290
     0
174
     0
 93
        1
 44
0.0
173
     0
291
     0
 45
0.0
1001
ACAD
1000
AcDbSavedByObjectVersion
1070
     0
  0
VISUALSTYLE
  5
44B
102
{ACAD_XDICTIONARY
360
525
102
}
102
{ACAD_REACTORS
330
436
102
}
330
436
100
AcDbVisualStyle
  2
Sketchy
 70
    24
 71
     1
 72
     2
 73
     2
 90
        0
 40
-0.6
 41
-30.0
 62
     5
 63
     7
 74
     2
 91
        2
 64
     7
 65
     7
 75
     1
175
     1
 42
40.0
 92
       11
 66
     7
 43
1.0
 76
     1
 77
     6
 78
     2
 67
     7
 79
     6
170
     0
171
     0
290
     0
174
     0
 93
        1
 44
0.0
173
     0
291
     0
 45
0.0
1001
ACAD
1000
AcDbSavedByObjectVersion
1070
     0
  0
VISUALSTYLE
  5
443
102
{ACAD_XDICTIONARY
360
515
102
}
102
{ACAD_REACTORS
330
436
102
}
330
436
100
AcDbVisualStyle
  2
Thicken
 70
    13
 71
     2
 72
     2
 73
     0
 90
        0
 40
-0.6
 41
-30.0
 62
     5
 63
     7
 74
     1
 91
        4
 64
     7
 65
   257
 75
     1
175
     1
 42
1.0
 92
       12
 66
     7
 43
1.0
 76
     1
 77
     6
 78
     2
 67
     7
 79
     5
170
     0
171
     0
290
     0
174
     0
 93
        1
 44
0.0
173
     0
291
     1
 45
0.0
1001
ACAD
1000
AcDbSavedByObjectVersion
1070
     0
  0
VISUALSTYLE
  5
43C
102
{ACAD_XDICTIONARY
360
507
102
}
102
{ACAD_REACTORS
330
436
102
}
330
436
100
AcDbVisualStyle
  2
Wireframe
 70
     5
 71
     0
 72
     2
 73
     0
 90
        0
 40
-0.6
 41
-30.0
 62
     5
 63
     7
 74
     1
 91
        4
 64
     7
 65
   257
 75
     1
175
     1
 42
1.0
 92
        0
 66
   257
 43
1.0
 76
     1
 77
     6
 78
     2
 67
     7
 79
     5
170
     0
171
     0
290
     0
174
     0
 93
        1
 44
0.0
173
     0
291
     0
 45
0.0
1001
ACAD
1000
AcDbSavedByObjectVersion
1070
     0
  0
VISUALSTYLE
  5
44C
102
{ACAD_XDICTIONARY
360
527
102
}
102
{ACAD_REACTORS
330
436
102
}
330
436
100
AcDbVisualStyle
  2
X-Ray
 70
    25
 71
     2
 72
     2
 73
     1
 90
        1
 40
0.5
 41
-30.0
 62
     5
 63
     7
 74
     1
 91
        0
 64
     7
 65
   257
 75
     1
175
     1
 42
1.0
 92
        8
 66
     7
 43
1.0
 76
     1
 77
     6
 78
     2
 67
     7
 79
     3
170
     0
171
     0
290
     0
174
     0
 93
       13
 44
0.0
173
     0
291
     0
 45
0.0
1001
ACAD
1000
AcDbSavedByObjectVersion
1070
     0
  0
DICTIONARYVAR
  5
45A
102
{ACAD_REACTORS
330
459
102
}
330
459
100
DictionaryVariables
280
     0
  1
1:1
  0
DICTIONARYVAR
  5
45C
102
{ACAD_REACTORS
330
459
102
}
330
459
100
DictionaryVariables
280
     0
  1
STANDARD
  0
DICTIONARYVAR
  5
45B
102
{ACAD_REACTORS
330
459
102
}
330
459
100
DictionaryVariables
280
     0
  1
STANDARD
  0
DICTIONARYVAR
  5
4E8
102
{ACAD_REACTORS
330
459
102
}
330
459
100
DictionaryVariables
280
     0
  1
Imperial24
  0
DICTIONARYVAR
  5
4E9
102
{ACAD_REACTORS
330
459
102
}
330
459
100
DictionaryVariables
280
     0
  1
Imperial24
  0
DICTIONARYVAR
  5
4F0
102
{ACAD_REACTORS
330
459
102
}
330
459
100
DictionaryVariables
280
     0
  1
1
  0
DICTIONARYVAR
  5
4EF
102
{ACAD_REACTORS
330
459
102
}
330
459
100
DictionaryVariables
280
     0
  1
1
  0
DICTIONARYVAR
  5
4EE
102
{ACAD_REACTORS
330
459
102
}
330
459
100
DictionaryVariables
280
     0
  1
0
  0
DICTIONARYVAR
  5
4EB
102
{ACAD_REACTORS
330
459
102
}
330
459
100
DictionaryVariables
280
     0
  1
0
  0
DICTIONARYVAR
  5
4EC
102
{ACAD_REACTORS
330
459
102
}
330
459
100
DictionaryVariables
280
     0
  1
0
  0
DICTIONARYVAR
  5
4EA
102
{ACAD_REACTORS
330
459
102
}
330
459
100
DictionaryVariables
280
     0
  1
2
  0
DICTIONARYVAR
  5
45D
102
{ACAD_REACTORS
330
459
102
}
330
459
100
DictionaryVariables
280
     0
  1
0
  0
DICTIONARYVAR
  5
4F1
102
{ACAD_REACTORS
330
459
102
}
330
459
100
DictionaryVariables
280
     0
  1
1
  0
DICTIONARYVAR
  5
4ED
102
{ACAD_REACTORS
330
459
102
}
330
459
100
DictionaryVariables
280
     0
  1
127
  0
DICTIONARYVAR
  5
4A2
102
{ACAD_REACTORS
330
459
102
}
330
459
100
DictionaryVariables
280
     0
  1
0
  0
DICTIONARY
  5
536
330
4E2
100
AcDbDictionary
280
     1
281
     1
  3
ACAD_XREC_ROUNDTRIP
360
537
  0
DICTIONARY
  5
4FB
330
1E
100
AcDbDictionary
280
     1
281
     1
  3
ACAD_XREC_ROUNDTRIP
360
4FC
  0
DICTIONARY
  5
4F9
330
1C
100
AcDbDictionary
280
     1
281
     1
  3
ACAD_XREC_ROUNDTRIP
360
4FA
  0
DICTIONARY
  5
52F
330
451
100
AcDbDictionary
280
     1
281
     1
  3
ACAD_XREC_ROUNDTRIP
360
530
  0
DICTIONARY
  5
52D
330
450
100
AcDbDictionary
280
     1
281
     1
  3
ACAD_XREC_ROUNDTRIP
360
52E
  0
DICTIONARY
  5
531
330
452
100
AcDbDictionary
280
     1
281
     1
  3
ACAD_XREC_ROUNDTRIP
360
532
  0
DICTIONARY
  5
534
330
4E1
100
AcDbDictionary
280
     1
281
     1
  3
ACAD_XREC_ROUNDTRIP
360
535
  0
DICTIONARY
  5
4F3
330
454
100
AcDbDictionary
280
     1
281
     1
  3
ACAD_ROUNDTRIP_2008_TABLESTYLE_CELLSTYLEMAP
360
4F4
  3
ACAD_XREC_ROUNDTRIP
360
533
  0
DICTIONARY
  5
505
330
43B
100
AcDbDictionary
280
     1
281
     1
  3
ACAD_XREC_ROUNDTRIP
360
506
  0
DICTIONARY
  5
50B
330
43E
100
AcDbDictionary
280
     1
281
     1
  3
ACAD_XREC_ROUNDTRIP
360
50C
  0
DICTIONARY
  5
513
330
442
100
AcDbDictionary
280
     1
281
     1
  3
ACAD_XREC_ROUNDTRIP
360
514
  0
DICTIONARY
  5
51B
330
446
100
AcDbDictionary
280
     1
281
     1
  3
ACAD_XREC_ROUNDTRIP
360
51C
  0
DICTIONARY
  5
50F
330
440
100
AcDbDictionary
280
     1
281
     1
  3
ACAD_XREC_ROUNDTRIP
360
510
  0
DICTIONARY
  5
511
330
441
100
AcDbDictionary
280
     1
281
     1
  3
ACAD_XREC_ROUNDTRIP
360
512
  0
DICTIONARY
  5
521
330
449
100
AcDbDictionary
280
     1
281
     1
  3
ACAD_XREC_ROUNDTRIP
360
522
  0
DICTIONARY
  5
519
330
445
100
AcDbDictionary
280
     1
281
     1
  3
ACAD_XREC_ROUNDTRIP
360
51A
  0
DICTIONARY
  5
4FD
330
437
100
AcDbDictionary
280
     1
281
     1
  3
ACAD_XREC_ROUNDTRIP
360
4FE
  0
DICTIONARY
  5
4FF
330
438
100
AcDbDictionary
280
     1
281
     1
  3
ACAD_XREC_ROUNDTRIP
360
500
  0
DICTIONARY
  5
501
330
439
100
AcDbDictionary
280
     1
281
     1
  3
ACAD_XREC_ROUNDTRIP
360
502
  0
DICTIONARY
  5
503
330
43A
100
AcDbDictionary
280
     1
281
     1
  3
ACAD_XREC_ROUNDTRIP
360
504
  0
DICTIONARY
  5
509
330
43D
100
AcDbDictionary
280
     1
281
     1
  3
ACAD_XREC_ROUNDTRIP
360
50A
  0
DICTIONARY
  5
51D
330
447
100
AcDbDictionary
280
     1
281
     1
  3
ACAD_XREC_ROUNDTRIP
360
51E
  0
DICTIONARY
  5
517
330
444
100
AcDbDictionary
280
     1
281
     1
  3
ACAD_XREC_ROUNDTRIP
360
518
  0
DICTIONARY
  5
51F
330
448
100
AcDbDictionary
280
     1
281
     1
  3
ACAD_XREC_ROUNDTRIP
360
520
  0
DICTIONARY
  5
50D
330
43F
100
AcDbDictionary
280
     1
281
     1
  3
ACAD_XREC_ROUNDTRIP
360
50E
  0
DICTIONARY
  5
52B
330
44E
100
AcDbDictionary
280
     1
281
     1
  3
ACAD_XREC_ROUNDTRIP
360
52C
  0
DICTIONARY
  5
529
330
44D
100
AcDbDictionary
280
     1
281
     1
  3
ACAD_XREC_ROUNDTRIP
360
52A
  0
DICTIONARY
  5
523
330
44A
100
AcDbDictionary
280
     1
281
     1
  3
ACAD_XREC_ROUNDTRIP
360
524
  0
DICTIONARY
  5
525
330
44B
100
AcDbDictionary
280
     1
281
     1
  3
ACAD_XREC_ROUNDTRIP
360
526
  0
DICTIONARY
  5
515
330
443
100
AcDbDictionary
280
     1
281
     1
  3
ACAD_XREC_ROUNDTRIP
360
516
  0
DICTIONARY
  5
507
330
43C
100
AcDbDictionary
280
     1
281
     1
  3
ACAD_XREC_ROUNDTRIP
360
508
  0
DICTIONARY
  5
527
330
44C
100
AcDbDictionary
280
     1
281
     1
  3
ACAD_XREC_ROUNDTRIP
360
528
  0
XRECORD
  5
537
102
{ACAD_REACTORS
330
536
102
}
330
536
100
AcDbXrecord
280
     1
102
DISPLAYNAME
  1
Imperial24
102
FLAGS
 90
        0
  0
XRECORD
  5
4FC
102
{ACAD_REACTORS
330
4FB
102
}
330
4FB
100
AcDbXrecord
280
     1
102
SHADEPLOT
 70
     0
102
SHADEPLOTRESLEVEL
 70
     2
102
SHADEPLOTCUSTOMDPI
 70
   300
  0
XRECORD
  5
4FA
102
{ACAD_REACTORS
330
4F9
102
}
330
4F9
100
AcDbXrecord
280
     1
102
SHADEPLOT
 70
     0
102
SHADEPLOTRESLEVEL
 70
     2
102
SHADEPLOTCUSTOMDPI
 70
   300
  0
XRECORD
  5
530
102
{ACAD_REACTORS
330
52F
102
}
330
52F
100
AcDbXrecord
280
     1
102
MATERIAL
148
0.0
149
0.0
149
0.0
 93
        0
 94
      127
282
     0
 72
     1
 77
     1
171
     1
175
     1
179
     1
273
     0
  0
XRECORD
  5
52E
102
{ACAD_REACTORS
330
52D
102
}
330
52D
100
AcDbXrecord
280
     1
102
MATERIAL
148
0.0
149
0.0
149
0.0
 93
        0
 94
      127
282
     0
 72
     1
 77
     1
171
     1
175
     1
179
     1
273
     0
  0
XRECORD
  5
532
102
{ACAD_REACTORS
330
531
102
}
330
531
100
AcDbXrecord
280
     1
102
MATERIAL
148
0.0
149
0.0
149
0.0
 93
        0
 94
      127
282
     0
 72
     1
 77
     1
171
     1
175
     1
179
     1
273
     0
  0
XRECORD
  5
535
102
{ACAD_REACTORS
330
534
102
}
330
534
100
AcDbXrecord
280
     1
102
DISPLAYNAME
  1
Imperial24
102
FLAGS
 90
        0
  0
CELLSTYLEMAP
  5
4F4
102
{ACAD_REACTORS
330
4F3
102
}
330
4F3
100
AcDbCellStyleMap
 90
        3
300
CELLSTYLE
  1
TABLEFORMAT_BEGIN
 90
        5
170
     1
 91
        0
 92
    32768
 62
   257
 93
        1
300
CONTENTFORMAT
  1
CONTENTFORMAT_BEGIN
 90
        0
 91
        0
 92
      512
 93
        0
300

 40
0.0
140
1.0
 94
        5
 62
     0
340
12
144
0.25
309
CONTENTFORMAT_END
171
     1
301
MARGIN
  1
CELLMARGIN_BEGIN
 40
0.06
 40
0.06
 40
0.06
 40
0.06
 40
0.06
 40
0.06
309
CELLMARGIN_END
 94
        6
 95
        1
302
GRIDFORMAT
  1
GRIDFORMAT_BEGIN
 90
        0
 91
        1
 62
     0
 92
       -2
340
14
 93
        0
 40
0.045
309
GRIDFORMAT_END
 95
        2
302
GRIDFORMAT
  1
GRIDFORMAT_BEGIN
 90
        0
 91
        1
 62
     0
 92
       -2
340
14
 93
        0
 40
0.045
309
GRIDFORMAT_END
 95
        4
302
GRIDFORMAT
  1
GRIDFORMAT_BEGIN
 90
        0
 91
        1
 62
     0
 92
       -2
340
14
 93
        0
 40
0.045
309
GRIDFORMAT_END
 95
        8
302
GRIDFORMAT
  1
GRIDFORMAT_BEGIN
 90
        0
 91
        1
 62
     0
 92
       -2
340
14
 93
        0
 40
0.045
309
GRIDFORMAT_END
 95
       16
302
GRIDFORMAT
  1
GRIDFORMAT_BEGIN
 90
        0
 91
        1
 62
     0
 92
       -2
340
14
 93
        0
 40
0.045
309
GRIDFORMAT_END
 95
       32
302
GRIDFORMAT
  1
GRIDFORMAT_BEGIN
 90
        0
 91
        1
 62
     0
 92
       -2
340
14
 93
        0
 40
0.045
309
GRIDFORMAT_END
309
TABLEFORMAT_END
  1
CELLSTYLE_BEGIN
 90
        1
 91
        1
300
_TITLE
309
CELLSTYLE_END
300
CELLSTYLE
  1
TABLEFORMAT_BEGIN
 90
        5
170
     1
 91
        0
 92
        0
 62
   257
 93
        1
300
CONTENTFORMAT
  1
CONTENTFORMAT_BEGIN
 90
        0
 91
        0
 92
      512
 93
        0
300

 40
0.0
140
1.0
 94
        5
 62
     0
340
12
144
0.18
309
CONTENTFORMAT_END
171
     1
301
MARGIN
  1
CELLMARGIN_BEGIN
 40
0.06
 40
0.06
 40
0.06
 40
0.06
 40
0.06
 40
0.06
309
CELLMARGIN_END
 94
        6
 95
        1
302
GRIDFORMAT
  1
GRIDFORMAT_BEGIN
 90
        0
 91
        1
 62
     0
 92
       -2
340
14
 93
        0
 40
0.045
309
GRIDFORMAT_END
 95
        2
302
GRIDFORMAT
  1
GRIDFORMAT_BEGIN
 90
        0
 91
        1
 62
     0
 92
       -2
340
14
 93
        0
 40
0.045
309
GRIDFORMAT_END
 95
        4
302
GRIDFORMAT
  1
GRIDFORMAT_BEGIN
 90
        0
 91
        1
 62
     0
 92
       -2
340
14
 93
        0
 40
0.045
309
GRIDFORMAT_END
 95
        8
302
GRIDFORMAT
  1
GRIDFORMAT_BEGIN
 90
        0
 91
        1
 62
     0
 92
       -2
340
14
 93
        0
 40
0.045
309
GRIDFORMAT_END
 95
       16
302
GRIDFORMAT
  1
GRIDFORMAT_BEGIN
 90
        0
 91
        1
 62
     0
 92
       -2
340
14
 93
        0
 40
0.045
309
GRIDFORMAT_END
 95
       32
302
GRIDFORMAT
  1
GRIDFORMAT_BEGIN
 90
        0
 91
        1
 62
     0
 92
       -2
340
14
 93
        0
 40
0.045
309
GRIDFORMAT_END
309
TABLEFORMAT_END
  1
CELLSTYLE_BEGIN
 90
        2
 91
        1
300
_HEADER
309
CELLSTYLE_END
300
CELLSTYLE
  1
TABLEFORMAT_BEGIN
 90
        5
170
     1
 91
        0
 92
        0
 62
   257
 93
        1
300
CONTENTFORMAT
  1
CONTENTFORMAT_BEGIN
 90
        0
 91
        0
 92
      512
 93
        0
300

 40
0.0
140
1.0
 94
        2
 62
     0
340
12
144
0.18
309
CONTENTFORMAT_END
171
     1
301
MARGIN
  1
CELLMARGIN_BEGIN
 40
0.06
 40
0.06
 40
0.06
 40
0.06
 40
0.06
 40
0.06
309
CELLMARGIN_END
 94
        6
 95
        1
302
GRIDFORMAT
  1
GRIDFORMAT_BEGIN
 90
        0
 91
        1
 62
     0
 92
       -2
340
14
 93
        0
 40
0.045
309
GRIDFORMAT_END
 95
        2
302
GRIDFORMAT
  1
GRIDFORMAT_BEGIN
 90
        0
 91
        1
 62
     0
 92
       -2
340
14
 93
        0
 40
0.045
309
GRIDFORMAT_END
 95
        4
302
GRIDFORMAT
  1
GRIDFORMAT_BEGIN
 90
        0
 91
        1
 62
     0
 92
       -2
340
14
 93
        0
 40
0.045
309
GRIDFORMAT_END
 95
        8
302
GRIDFORMAT
  1
GRIDFORMAT_BEGIN
 90
        0
 91
        1
 62
     0
 92
       -2
340
14
 93
        0
 40
0.045
309
GRIDFORMAT_END
 95
       16
302
GRIDFORMAT
  1
GRIDFORMAT_BEGIN
 90
        0
 91
        1
 62
     0
 92
       -2
340
14
 93
        0
 40
0.045
309
GRIDFORMAT_END
 95
       32
302
GRIDFORMAT
  1
GRIDFORMAT_BEGIN
 90
        0
 91
        1
 62
     0
 92
       -2
340
14
 93
        0
 40
0.045
309
GRIDFORMAT_END
309
TABLEFORMAT_END
  1
CELLSTYLE_BEGIN
 90
        3
 91
        2
300
_DATA
309
CELLSTYLE_END
  0
XRECORD
  5
533
102
{ACAD_REACTORS
330
4F3
102
}
330
4F3
100
AcDbXrecord
280
     1
102
ACAD_ROUNDTRIP_PRE2007_TABLESTYLE
 90
      512
 91
        0
  1

 92
      512
 93
        0
  2

 94
      512
 95
        0
  3

  0
XRECORD
  5
506
102
{ACAD_REACTORS
330
505
102
}
330
505
100
AcDbXrecord
280
     1
102
RTVSPost2010Prop28
280
     1
102
RTVSPost2010PropOp28
 70
     1
102
RTVSPost2010Prop29
280
     1
102
RTVSPost2010PropOp29
 70
     1
102
RTVSPost2010Prop30
280
     0
102
RTVSPost2010PropOp30
 70
     1
102
RTVSPost2010Prop31
280
     0
102
RTVSPost2010PropOp31
 70
     1
102
RTVSPost2010Prop32
280
     0
102
RTVSPost2010PropOp32
 70
     1
102
RTVSPost2010Prop33
280
     0
102
RTVSPost2010PropOp33
 70
     1
102
RTVSPost2010Prop34
280
     0
102
RTVSPost2010PropOp34
 70
     1
102
RTVSPost2010Prop35
280
     0
102
RTVSPost2010PropOp35
 70
     1
102
RTVSPost2010Prop36
280
     0
102
RTVSPost2010PropOp36
 70
     1
102
RTVSPost2010Prop37
 90
       50
102
RTVSPost2010PropOp37
 70
     1
102
RTVSPost2010Prop38
140
0.0
102
RTVSPost2010PropOp38
 70
     1
102
RTVSPost2010Prop39
140
1.0
102
RTVSPost2010PropOp39
 70
     1
102
RTVSPost2010Prop40
 90
        0
102
RTVSPost2010PropOp40
 70
     1
102
RTVSPost2010Prop41ColorIndex
 90
       18
102
RTVSPost2010Prop41ColorRGB
 90
        0
102
RTVSPost2010PropOp41
 70
     1
102
RTVSPost2010Prop42
 90
       50
102
RTVSPost2010PropOp42
 70
     1
102
RTVSPost2010Prop43
 90
        3
102
RTVSPost2010PropOp43
 70
     1
102
RTVSPost2010Prop44ColorIndex
 90
        5
102
RTVSPost2010Prop44ColorRGB
 90
      255
102
RTVSPost2010PropOp44
 70
     1
102
RTVSPost2010Prop45
280
     0
102
RTVSPost2010PropOp45
 70
     1
102
RTVSPost2010Prop46
 90
       50
102
RTVSPost2010PropOp46
 70
     1
102
RTVSPost2010Prop47
 90
       50
102
RTVSPost2010PropOp47
 70
     1
102
RTVSPost2010Prop48
 90
       50
102
RTVSPost2010PropOp48
 70
     1
102
RTVSPost2010Prop49
280
     0
102
RTVSPost2010PropOp49
 70
     1
102
RTVSPost2010Prop50
 90
       50
102
RTVSPost2010PropOp50
 70
     1
102
RTVSPost2010Prop51ColorIndex
 90
      256
102
RTVSPost2010Prop51ColorRGB
 90
-16777216
102
RTVSPost2010PropOp51
 70
     0
102
RTVSPost2010Prop52
140
1.0
102
RTVSPost2010PropOp52
 70
     0
102
RTVSPost2010Prop53
 90
        2
102
RTVSPost2010PropOp53
 70
     1
102
RTVSPost2010Prop54
  1
strokes_ogs.tif
102
RTVSPost2010PropOp54
 70
     1
102
RTVSPost2010Prop55
280
     0
102
RTVSPost2010PropOp55
 70
     1
102
RTVSPost2010Prop56
140
1.0
102
RTVSPost2010PropOp56
 70
     1
102
RTVSPost2010Prop57
140
1.0
102
RTVSPost2010PropOp57
 70
     1
102
RTVSPropertyOp0
 70
     1
102
RTVSPropertyOp1
 70
     1
102
RTVSPropertyOp2
 70
     1
102
RTVSPropertyOp3
 70
     1
102
RTVSPropertyOp4
 70
     1
102
RTVSPropertyOp5
 70
     1
102
RTVSPropertyOp6
 70
     1
102
RTVSPropertyOp7
 70
     1
102
RTVSPropertyOp8
 70
     1
102
RTVSPropertyOp9
 70
     1
102
RTVSPropertyOp10
 70
     1
102
RTVSPropertyOp11
 70
     1
102
RTVSPropertyOp12
 70
     1
102
RTVSPropertyOp13
 70
     1
102
RTVSPropertyOp14
 70
     1
102
RTVSPropertyOp15
 70
     1
102
RTVSPropertyOp16
 70
     1
102
RTVSPropertyOp17
 70
     1
102
RTVSPropertyOp18
 70
     1
102
RTVSPropertyOp19
 70
     1
102
RTVSPropertyOp20
 70
     1
102
RTVSPropertyOp21
 70
     1
102
RTVSPropertyOp22
 70
     1
102
RTVSPropertyOp23
 70
     1
102
RTVSPropertyOp24
 70
     1
102
RTVSPropertyOp25
 70
     1
102
RTVSPropertyOp26
 70
     1
102
RTVSPropertyOp27
 70
     1
102
RTVSPropertyOp28
 70
     1
102
RTVSPropertyOp29
 70
     1
102
RTVSPropertyOp30
 70
     1
102
RTVSPropertyOp31
 70
     1
102
RTVSPropertyOp32
 70
     1
102
RTVSPropertyOp33
 70
     1
102
RTVSPropertyOp34
 70
     1
102
RTVSPropertyOp35
 70
     1
102
RTVSPropertyOp36
 70
     1
102
RTVSPropertyOp37
 70
     1
102
RTVSPropertyOp38
 70
     1
102
RTVSPropertyOp39
 70
     1
102
RTVSPropertyOp40
 70
     1
102
RTVSPropertyOp41
 70
     1
102
RTVSPropertyOp42
 70
     1
102
RTVSPropertyOp43
 70
     1
102
RTVSPropertyOp44
 70
     1
102
RTVSPropertyOp45
 70
     1
102
RTVSPropertyOp46
 70
     1
102
RTVSPropertyOp47
 70
     1
102
RTVSPropertyOp48
 70
     1
102
RTVSPropertyOp49
 70
     1
102
RTVSPropertyOp50
 70
     1
102
RTVSPropertyOp51
 70
     0
102
RTVSPropertyOp52
 70
     0
102
RTVSPropertyOp53
 70
     1
102
RTVSPropertyOp54
 70
     1
102
RTVSPropertyOp55
 70
     1
102
RTVSPropertyOp56
 70
     1
102
RTVSPropertyOp57
 70
     1
102
RTVSPropertyOp58
 70
     1
102
RTVSPropertyOp59
 70
     1
102
RTVSPropertyOp60
 70
     1
102
RTVSPropertyOp61
 70
     1
102
RTVSPropertyOp62
 70
     1
  0
XRECORD
  5
50C
102
{ACAD_REACTORS
330
50B
102
}
330
50B
100
AcDbXrecord
280
     1
102
RTVSPost2010Prop28
280
     0
102
RTVSPost2010PropOp28
 70
     1
102
RTVSPost2010Prop29
280
     1
102
RTVSPost2010PropOp29
 70
     1
102
RTVSPost2010Prop30
280
     1
102
RTVSPost2010PropOp30
 70
     1
102
RTVSPost2010Prop31
280
     0
102
RTVSPost2010PropOp31
 70
     1
102
RTVSPost2010Prop32
280
     0
102
RTVSPost2010PropOp32
 70
     1
102
RTVSPost2010Prop33
280
     0
102
RTVSPost2010PropOp33
 70
     1
102
RTVSPost2010Prop34
280
     0
102
RTVSPost2010PropOp34
 70
     1
102
RTVSPost2010Prop35
280
     0
102
RTVSPost2010PropOp35
 70
     1
102
RTVSPost2010Prop36
280
     0
102
RTVSPost2010PropOp36
 70
     1
102
RTVSPost2010Prop37
 90
       50
102
RTVSPost2010PropOp37
 70
     1
102
RTVSPost2010Prop38
140
0.0
102
RTVSPost2010PropOp38
 70
     1
102
RTVSPost2010Prop39
140
1.0
102
RTVSPost2010PropOp39
 70
     1
102
RTVSPost2010Prop40
 90
        0
102
RTVSPost2010PropOp40
 70
     1
102
RTVSPost2010Prop41ColorIndex
 90
       18
102
RTVSPost2010Prop41ColorRGB
 90
        0
102
RTVSPost2010PropOp41
 70
     1
102
RTVSPost2010Prop42
 90
       50
102
RTVSPost2010PropOp42
 70
     1
102
RTVSPost2010Prop43
 90
        3
102
RTVSPost2010PropOp43
 70
     1
102
RTVSPost2010Prop44ColorIndex
 90
        5
102
RTVSPost2010Prop44ColorRGB
 90
      255
102
RTVSPost2010PropOp44
 70
     1
102
RTVSPost2010Prop45
280
     0
102
RTVSPost2010PropOp45
 70
     1
102
RTVSPost2010Prop46
 90
       50
102
RTVSPost2010PropOp46
 70
     1
102
RTVSPost2010Prop47
 90
       50
102
RTVSPost2010PropOp47
 70
     1
102
RTVSPost2010Prop48
 90
       50
102
RTVSPost2010PropOp48
 70
     1
102
RTVSPost2010Prop49
280
     0
102
RTVSPost2010PropOp49
 70
     1
102
RTVSPost2010Prop50
 90
       50
102
RTVSPost2010PropOp50
 70
     1
102
RTVSPost2010Prop51ColorIndex
 90
      256
102
RTVSPost2010Prop51ColorRGB
 90
-16777216
102
RTVSPost2010PropOp51
 70
     0
102
RTVSPost2010Prop52
140
1.0
102
RTVSPost2010PropOp52
 70
     0
102
RTVSPost2010Prop53
 90
        2
102
RTVSPost2010PropOp53
 70
     1
102
RTVSPost2010Prop54
  1
strokes_ogs.tif
102
RTVSPost2010PropOp54
 70
     1
102
RTVSPost2010Prop55
280
     0
102
RTVSPost2010PropOp55
 70
     1
102
RTVSPost2010Prop56
140
1.0
102
RTVSPost2010PropOp56
 70
     1
102
RTVSPost2010Prop57
140
1.0
102
RTVSPost2010PropOp57
 70
     1
102
RTVSPropertyOp0
 70
     1
102
RTVSPropertyOp1
 70
     1
102
RTVSPropertyOp2
 70
     1
102
RTVSPropertyOp3
 70
     1
102
RTVSPropertyOp4
 70
     1
102
RTVSPropertyOp5
 70
     1
102
RTVSPropertyOp6
 70
     1
102
RTVSPropertyOp7
 70
     1
102
RTVSPropertyOp8
 70
     1
102
RTVSPropertyOp9
 70
     1
102
RTVSPropertyOp10
 70
     1
102
RTVSPropertyOp11
 70
     1
102
RTVSPropertyOp12
 70
     1
102
RTVSPropertyOp13
 70
     1
102
RTVSPropertyOp14
 70
     1
102
RTVSPropertyOp15
 70
     1
102
RTVSPropertyOp16
 70
     1
102
RTVSPropertyOp17
 70
     1
102
RTVSPropertyOp18
 70
     1
102
RTVSPropertyOp19
 70
     1
102
RTVSPropertyOp20
 70
     1
102
RTVSPropertyOp21
 70
     1
102
RTVSPropertyOp22
 70
     1
102
RTVSPropertyOp23
 70
     1
102
RTVSPropertyOp24
 70
     1
102
RTVSPropertyOp25
 70
     1
102
RTVSPropertyOp26
 70
     1
102
RTVSPropertyOp27
 70
     1
102
RTVSPropertyOp28
 70
     1
102
RTVSPropertyOp29
 70
     1
102
RTVSPropertyOp30
 70
     1
102
RTVSPropertyOp31
 70
     1
102
RTVSPropertyOp32
 70
     1
102
RTVSPropertyOp33
 70
     1
102
RTVSPropertyOp34
 70
     1
102
RTVSPropertyOp35
 70
     1
102
RTVSPropertyOp36
 70
     1
102
RTVSPropertyOp37
 70
     1
102
RTVSPropertyOp38
 70
     1
102
RTVSPropertyOp39
 70
     1
102
RTVSPropertyOp40
 70
     1
102
RTVSPropertyOp41
 70
     1
102
RTVSPropertyOp42
 70
     1
102
RTVSPropertyOp43
 70
     1
102
RTVSPropertyOp44
 70
     1
102
RTVSPropertyOp45
 70
     1
102
RTVSPropertyOp46
 70
     1
102
RTVSPropertyOp47
 70
     1
102
RTVSPropertyOp48
 70
     1
102
RTVSPropertyOp49
 70
     1
102
RTVSPropertyOp50
 70
     1
102
RTVSPropertyOp51
 70
     0
102
RTVSPropertyOp52
 70
     0
102
RTVSPropertyOp53
 70
     1
102
RTVSPropertyOp54
 70
     1
102
RTVSPropertyOp55
 70
     1
102
RTVSPropertyOp56
 70
     1
102
RTVSPropertyOp57
 70
     1
102
RTVSPropertyOp58
 70
     1
102
RTVSPropertyOp59
 70
     1
102
RTVSPropertyOp60
 70
     1
102
RTVSPropertyOp61
 70
     1
102
RTVSPropertyOp62
 70
     1
  0
XRECORD
  5
514
102
{ACAD_REACTORS
330
513
102
}
330
513
100
AcDbXrecord
280
     1
102
RTVSPost2010Prop28
280
     0
102
RTVSPost2010PropOp28
 70
     1
102
RTVSPost2010Prop29
280
     1
102
RTVSPost2010PropOp29
 70
     1
102
RTVSPost2010Prop30
280
     1
102
RTVSPost2010PropOp30
 70
     1
102
RTVSPost2010Prop31
280
     0
102
RTVSPost2010PropOp31
 70
     1
102
RTVSPost2010Prop32
280
     0
102
RTVSPost2010PropOp32
 70
     1
102
RTVSPost2010Prop33
280
     0
102
RTVSPost2010PropOp33
 70
     1
102
RTVSPost2010Prop34
280
     0
102
RTVSPost2010PropOp34
 70
     1
102
RTVSPost2010Prop35
280
     0
102
RTVSPost2010PropOp35
 70
     1
102
RTVSPost2010Prop36
280
     0
102
RTVSPost2010PropOp36
 70
     1
102
RTVSPost2010Prop37
 90
       50
102
RTVSPost2010PropOp37
 70
     1
102
RTVSPost2010Prop38
140
0.0
102
RTVSPost2010PropOp38
 70
     1
102
RTVSPost2010Prop39
140
1.0
102
RTVSPost2010PropOp39
 70
     1
102
RTVSPost2010Prop40
 90
        0
102
RTVSPost2010PropOp40
 70
     1
102
RTVSPost2010Prop41ColorIndex
 90
       18
102
RTVSPost2010Prop41ColorRGB
 90
        0
102
RTVSPost2010PropOp41
 70
     1
102
RTVSPost2010Prop42
 90
       50
102
RTVSPost2010PropOp42
 70
     1
102
RTVSPost2010Prop43
 90
        3
102
RTVSPost2010PropOp43
 70
     1
102
RTVSPost2010Prop44ColorIndex
 90
        5
102
RTVSPost2010Prop44ColorRGB
 90
      255
102
RTVSPost2010PropOp44
 70
     1
102
RTVSPost2010Prop45
280
     0
102
RTVSPost2010PropOp45
 70
     1
102
RTVSPost2010Prop46
 90
       50
102
RTVSPost2010PropOp46
 70
     1
102
RTVSPost2010Prop47
 90
       50
102
RTVSPost2010PropOp47
 70
     1
102
RTVSPost2010Prop48
 90
       50
102
RTVSPost2010PropOp48
 70
     1
102
RTVSPost2010Prop49
280
     0
102
RTVSPost2010PropOp49
 70
     1
102
RTVSPost2010Prop50
 90
       50
102
RTVSPost2010PropOp50
 70
     1
102
RTVSPost2010Prop51ColorIndex
 90
      256
102
RTVSPost2010Prop51ColorRGB
 90
-16777216
102
RTVSPost2010PropOp51
 70
     0
102
RTVSPost2010Prop52
140
1.0
102
RTVSPost2010PropOp52
 70
     0
102
RTVSPost2010Prop53
 90
        2
102
RTVSPost2010PropOp53
 70
     1
102
RTVSPost2010Prop54
  1
strokes_ogs.tif
102
RTVSPost2010PropOp54
 70
     1
102
RTVSPost2010Prop55
280
     0
102
RTVSPost2010PropOp55
 70
     1
102
RTVSPost2010Prop56
140
1.0
102
RTVSPost2010PropOp56
 70
     1
102
RTVSPost2010Prop57
140
1.0
102
RTVSPost2010PropOp57
 70
     1
102
RTVSPropertyOp0
 70
     1
102
RTVSPropertyOp1
 70
     1
102
RTVSPropertyOp2
 70
     1
102
RTVSPropertyOp3
 70
     1
102
RTVSPropertyOp4
 70
     1
102
RTVSPropertyOp5
 70
     1
102
RTVSPropertyOp6
 70
     1
102
RTVSPropertyOp7
 70
     1
102
RTVSPropertyOp8
 70
     1
102
RTVSPropertyOp9
 70
     1
102
RTVSPropertyOp10
 70
     1
102
RTVSPropertyOp11
 70
     1
102
RTVSPropertyOp12
 70
     1
102
RTVSPropertyOp13
 70
     1
102
RTVSPropertyOp14
 70
     1
102
RTVSPropertyOp15
 70
     1
102
RTVSPropertyOp16
 70
     1
102
RTVSPropertyOp17
 70
     1
102
RTVSPropertyOp18
 70
     1
102
RTVSPropertyOp19
 70
     1
102
RTVSPropertyOp20
 70
     1
102
RTVSPropertyOp21
 70
     1
102
RTVSPropertyOp22
 70
     1
102
RTVSPropertyOp23
 70
     1
102
RTVSPropertyOp24
 70
     1
102
RTVSPropertyOp25
 70
     1
102
RTVSPropertyOp26
 70
     1
102
RTVSPropertyOp27
 70
     1
102
RTVSPropertyOp28
 70
     1
102
RTVSPropertyOp29
 70
     1
102
RTVSPropertyOp30
 70
     1
102
RTVSPropertyOp31
 70
     1
102
RTVSPropertyOp32
 70
     1
102
RTVSPropertyOp33
 70
     1
102
RTVSPropertyOp34
 70
     1
102
RTVSPropertyOp35
 70
     1
102
RTVSPropertyOp36
 70
     1
102
RTVSPropertyOp37
 70
     1
102
RTVSPropertyOp38
 70
     1
102
RTVSPropertyOp39
 70
     1
102
RTVSPropertyOp40
 70
     1
102
RTVSPropertyOp41
 70
     1
102
RTVSPropertyOp42
 70
     1
102
RTVSPropertyOp43
 70
     1
102
RTVSPropertyOp44
 70
     1
102
RTVSPropertyOp45
 70
     1
102
RTVSPropertyOp46
 70
     1
102
RTVSPropertyOp47
 70
     1
102
RTVSPropertyOp48
 70
     1
102
RTVSPropertyOp49
 70
     1
102
RTVSPropertyOp50
 70
     1
102
RTVSPropertyOp51
 70
     0
102
RTVSPropertyOp52
 70
     0
102
RTVSPropertyOp53
 70
     1
102
RTVSPropertyOp54
 70
     1
102
RTVSPropertyOp55
 70
     1
102
RTVSPropertyOp56
 70
     1
102
RTVSPropertyOp57
 70
     1
102
RTVSPropertyOp58
 70
     1
102
RTVSPropertyOp59
 70
     1
102
RTVSPropertyOp60
 70
     1
102
RTVSPropertyOp61
 70
     1
102
RTVSPropertyOp62
 70
     1
  0
XRECORD
  5
51C
102
{ACAD_REACTORS
330
51B
102
}
330
51B
100
AcDbXrecord
280
     1
102
RTVSPost2010Prop28
280
     0
102
RTVSPost2010PropOp28
 70
     1
102
RTVSPost2010Prop29
280
     1
102
RTVSPost2010PropOp29
 70
     1
102
RTVSPost2010Prop30
280
     1
102
RTVSPost2010PropOp30
 70
     1
102
RTVSPost2010Prop31
280
     0
102
RTVSPost2010PropOp31
 70
     1
102
RTVSPost2010Prop32
280
     0
102
RTVSPost2010PropOp32
 70
     1
102
RTVSPost2010Prop33
280
     0
102
RTVSPost2010PropOp33
 70
     1
102
RTVSPost2010Prop34
280
     0
102
RTVSPost2010PropOp34
 70
     1
102
RTVSPost2010Prop35
280
     0
102
RTVSPost2010PropOp35
 70
     1
102
RTVSPost2010Prop36
280
     0
102
RTVSPost2010PropOp36
 70
     1
102
RTVSPost2010Prop37
 90
       50
102
RTVSPost2010PropOp37
 70
     1
102
RTVSPost2010Prop38
140
0.0
102
RTVSPost2010PropOp38
 70
     1
102
RTVSPost2010Prop39
140
1.0
102
RTVSPost2010PropOp39
 70
     1
102
RTVSPost2010Prop40
 90
        0
102
RTVSPost2010PropOp40
 70
     1
102
RTVSPost2010Prop41ColorIndex
 90
       18
102
RTVSPost2010Prop41ColorRGB
 90
        0
102
RTVSPost2010PropOp41
 70
     1
102
RTVSPost2010Prop42
 90
       50
102
RTVSPost2010PropOp42
 70
     1
102
RTVSPost2010Prop43
 90
        3
102
RTVSPost2010PropOp43
 70
     1
102
RTVSPost2010Prop44ColorIndex
 90
        5
102
RTVSPost2010Prop44ColorRGB
 90
      255
102
RTVSPost2010PropOp44
 70
     1
102
RTVSPost2010Prop45
280
     0
102
RTVSPost2010PropOp45
 70
     1
102
RTVSPost2010Prop46
 90
       50
102
RTVSPost2010PropOp46
 70
     1
102
RTVSPost2010Prop47
 90
       50
102
RTVSPost2010PropOp47
 70
     1
102
RTVSPost2010Prop48
 90
       50
102
RTVSPost2010PropOp48
 70
     1
102
RTVSPost2010Prop49
280
     0
102
RTVSPost2010PropOp49
 70
     1
102
RTVSPost2010Prop50
 90
       50
102
RTVSPost2010PropOp50
 70
     1
102
RTVSPost2010Prop51ColorIndex
 90
      256
102
RTVSPost2010Prop51ColorRGB
 90
-16777216
102
RTVSPost2010PropOp51
 70
     0
102
RTVSPost2010Prop52
140
1.0
102
RTVSPost2010PropOp52
 70
     0
102
RTVSPost2010Prop53
 90
        2
102
RTVSPost2010PropOp53
 70
     1
102
RTVSPost2010Prop54
  1
strokes_ogs.tif
102
RTVSPost2010PropOp54
 70
     1
102
RTVSPost2010Prop55
280
     0
102
RTVSPost2010PropOp55
 70
     1
102
RTVSPost2010Prop56
140
1.0
102
RTVSPost2010PropOp56
 70
     1
102
RTVSPost2010Prop57
140
1.0
102
RTVSPost2010PropOp57
 70
     1
102
RTVSPropertyOp0
 70
     1
102
RTVSPropertyOp1
 70
     1
102
RTVSPropertyOp2
 70
     1
102
RTVSPropertyOp3
 70
     1
102
RTVSPropertyOp4
 70
     1
102
RTVSPropertyOp5
 70
     1
102
RTVSPropertyOp6
 70
     1
102
RTVSPropertyOp7
 70
     1
102
RTVSPropertyOp8
 70
     1
102
RTVSPropertyOp9
 70
     1
102
RTVSPropertyOp10
 70
     1
102
RTVSPropertyOp11
 70
     1
102
RTVSPropertyOp12
 70
     1
102
RTVSPropertyOp13
 70
     1
102
RTVSPropertyOp14
 70
     1
102
RTVSPropertyOp15
 70
     1
102
RTVSPropertyOp16
 70
     1
102
RTVSPropertyOp17
 70
     1
102
RTVSPropertyOp18
 70
     1
102
RTVSPropertyOp19
 70
     1
102
RTVSPropertyOp20
 70
     1
102
RTVSPropertyOp21
 70
     1
102
RTVSPropertyOp22
 70
     1
102
RTVSPropertyOp23
 70
     1
102
RTVSPropertyOp24
 70
     1
102
RTVSPropertyOp25
 70
     1
102
RTVSPropertyOp26
 70
     1
102
RTVSPropertyOp27
 70
     1
102
RTVSPropertyOp28
 70
     1
102
RTVSPropertyOp29
 70
     1
102
RTVSPropertyOp30
 70
     1
102
RTVSPropertyOp31
 70
     1
102
RTVSPropertyOp32
 70
     1
102
RTVSPropertyOp33
 70
     1
102
RTVSPropertyOp34
 70
     1
102
RTVSPropertyOp35
 70
     1
102
RTVSPropertyOp36
 70
     1
102
RTVSPropertyOp37
 70
     1
102
RTVSPropertyOp38
 70
     1
102
RTVSPropertyOp39
 70
     1
102
RTVSPropertyOp40
 70
     1
102
RTVSPropertyOp41
 70
     1
102
RTVSPropertyOp42
 70
     1
102
RTVSPropertyOp43
 70
     1
102
RTVSPropertyOp44
 70
     1
102
RTVSPropertyOp45
 70
     1
102
RTVSPropertyOp46
 70
     1
102
RTVSPropertyOp47
 70
     1
102
RTVSPropertyOp48
 70
     1
102
RTVSPropertyOp49
 70
     1
102
RTVSPropertyOp50
 70
     1
102
RTVSPropertyOp51
 70
     0
102
RTVSPropertyOp52
 70
     0
102
RTVSPropertyOp53
 70
     1
102
RTVSPropertyOp54
 70
     1
102
RTVSPropertyOp55
 70
     1
102
RTVSPropertyOp56
 70
     1
102
RTVSPropertyOp57
 70
     1
102
RTVSPropertyOp58
 70
     1
102
RTVSPropertyOp59
 70
     1
102
RTVSPropertyOp60
 70
     1
102
RTVSPropertyOp61
 70
     1
102
RTVSPropertyOp62
 70
     1
  0
XRECORD
  5
510
102
{ACAD_REACTORS
330
50F
102
}
330
50F
100
AcDbXrecord
280
     1
102
RTVSPost2010Prop28
280
     0
102
RTVSPost2010PropOp28
 70
     1
102
RTVSPost2010Prop29
280
     1
102
RTVSPost2010PropOp29
 70
     1
102
RTVSPost2010Prop30
280
     1
102
RTVSPost2010PropOp30
 70
     1
102
RTVSPost2010Prop31
280
     0
102
RTVSPost2010PropOp31
 70
     1
102
RTVSPost2010Prop32
280
     0
102
RTVSPost2010PropOp32
 70
     1
102
RTVSPost2010Prop33
280
     0
102
RTVSPost2010PropOp33
 70
     1
102
RTVSPost2010Prop34
280
     0
102
RTVSPost2010PropOp34
 70
     1
102
RTVSPost2010Prop35
280
     0
102
RTVSPost2010PropOp35
 70
     1
102
RTVSPost2010Prop36
280
     0
102
RTVSPost2010PropOp36
 70
     1
102
RTVSPost2010Prop37
 90
       50
102
RTVSPost2010PropOp37
 70
     1
102
RTVSPost2010Prop38
140
0.0
102
RTVSPost2010PropOp38
 70
     1
102
RTVSPost2010Prop39
140
1.0
102
RTVSPost2010PropOp39
 70
     1
102
RTVSPost2010Prop40
 90
        0
102
RTVSPost2010PropOp40
 70
     1
102
RTVSPost2010Prop41ColorIndex
 90
       18
102
RTVSPost2010Prop41ColorRGB
 90
        0
102
RTVSPost2010PropOp41
 70
     1
102
RTVSPost2010Prop42
 90
       50
102
RTVSPost2010PropOp42
 70
     1
102
RTVSPost2010Prop43
 90
        3
102
RTVSPost2010PropOp43
 70
     1
102
RTVSPost2010Prop44ColorIndex
 90
        5
102
RTVSPost2010Prop44ColorRGB
 90
      255
102
RTVSPost2010PropOp44
 70
     1
102
RTVSPost2010Prop45
280
     0
102
RTVSPost2010PropOp45
 70
     1
102
RTVSPost2010Prop46
 90
       50
102
RTVSPost2010PropOp46
 70
     1
102
RTVSPost2010Prop47
 90
       50
102
RTVSPost2010PropOp47
 70
     1
102
RTVSPost2010Prop48
 90
       50
102
RTVSPost2010PropOp48
 70
     1
102
RTVSPost2010Prop49
280
     0
102
RTVSPost2010PropOp49
 70
     1
102
RTVSPost2010Prop50
 90
       50
102
RTVSPost2010PropOp50
 70
     1
102
RTVSPost2010Prop51ColorIndex
 90
      256
102
RTVSPost2010Prop51ColorRGB
 90
-16777216
102
RTVSPost2010PropOp51
 70
     0
102
RTVSPost2010Prop52
140
1.0
102
RTVSPost2010PropOp52
 70
     0
102
RTVSPost2010Prop53
 90
        2
102
RTVSPost2010PropOp53
 70
     1
102
RTVSPost2010Prop54
  1
strokes_ogs.tif
102
RTVSPost2010PropOp54
 70
     1
102
RTVSPost2010Prop55
280
     0
102
RTVSPost2010PropOp55
 70
     1
102
RTVSPost2010Prop56
140
1.0
102
RTVSPost2010PropOp56
 70
     1
102
RTVSPost2010Prop57
140
1.0
102
RTVSPost2010PropOp57
 70
     1
102
RTVSPropertyOp0
 70
     1
102
RTVSPropertyOp1
 70
     1
102
RTVSPropertyOp2
 70
     1
102
RTVSPropertyOp3
 70
     1
102
RTVSPropertyOp4
 70
     1
102
RTVSPropertyOp5
 70
     1
102
RTVSPropertyOp6
 70
     1
102
RTVSPropertyOp7
 70
     1
102
RTVSPropertyOp8
 70
     1
102
RTVSPropertyOp9
 70
     1
102
RTVSPropertyOp10
 70
     1
102
RTVSPropertyOp11
 70
     1
102
RTVSPropertyOp12
 70
     1
102
RTVSPropertyOp13
 70
     1
102
RTVSPropertyOp14
 70
     1
102
RTVSPropertyOp15
 70
     1
102
RTVSPropertyOp16
 70
     1
102
RTVSPropertyOp17
 70
     1
102
RTVSPropertyOp18
 70
     1
102
RTVSPropertyOp19
 70
     1
102
RTVSPropertyOp20
 70
     1
102
RTVSPropertyOp21
 70
     1
102
RTVSPropertyOp22
 70
     1
102
RTVSPropertyOp23
 70
     1
102
RTVSPropertyOp24
 70
     1
102
RTVSPropertyOp25
 70
     1
102
RTVSPropertyOp26
 70
     1
102
RTVSPropertyOp27
 70
     1
102
RTVSPropertyOp28
 70
     1
102
RTVSPropertyOp29
 70
     1
102
RTVSPropertyOp30
 70
     1
102
RTVSPropertyOp31
 70
     1
102
RTVSPropertyOp32
 70
     1
102
RTVSPropertyOp33
 70
     1
102
RTVSPropertyOp34
 70
     1
102
RTVSPropertyOp35
 70
     1
102
RTVSPropertyOp36
 70
     1
102
RTVSPropertyOp37
 70
     1
102
RTVSPropertyOp38
 70
     1
102
RTVSPropertyOp39
 70
     1
102
RTVSPropertyOp40
 70
     1
102
RTVSPropertyOp41
 70
     1
102
RTVSPropertyOp42
 70
     1
102
RTVSPropertyOp43
 70
     1
102
RTVSPropertyOp44
 70
     1
102
RTVSPropertyOp45
 70
     1
102
RTVSPropertyOp46
 70
     1
102
RTVSPropertyOp47
 70
     1
102
RTVSPropertyOp48
 70
     1
102
RTVSPropertyOp49
 70
     1
102
RTVSPropertyOp50
 70
     1
102
RTVSPropertyOp51
 70
     0
102
RTVSPropertyOp52
 70
     0
102
RTVSPropertyOp53
 70
     1
102
RTVSPropertyOp54
 70
     1
102
RTVSPropertyOp55
 70
     1
102
RTVSPropertyOp56
 70
     1
102
RTVSPropertyOp57
 70
     1
102
RTVSPropertyOp58
 70
     1
102
RTVSPropertyOp59
 70
     1
102
RTVSPropertyOp60
 70
     1
102
RTVSPropertyOp61
 70
     1
102
RTVSPropertyOp62
 70
     1
  0
XRECORD
  5
512
102
{ACAD_REACTORS
330
511
102
}
330
511
100
AcDbXrecord
280
     1
102
RTVSPost2010Prop28
280
     0
102
RTVSPost2010PropOp28
 70
     1
102
RTVSPost2010Prop29
280
     1
102
RTVSPost2010PropOp29
 70
     1
102
RTVSPost2010Prop30
280
     1
102
RTVSPost2010PropOp30
 70
     1
102
RTVSPost2010Prop31
280
     0
102
RTVSPost2010PropOp31
 70
     1
102
RTVSPost2010Prop32
280
     0
102
RTVSPost2010PropOp32
 70
     1
102
RTVSPost2010Prop33
280
     0
102
RTVSPost2010PropOp33
 70
     1
102
RTVSPost2010Prop34
280
     0
102
RTVSPost2010PropOp34
 70
     1
102
RTVSPost2010Prop35
280
     0
102
RTVSPost2010PropOp35
 70
     1
102
RTVSPost2010Prop36
280
     0
102
RTVSPost2010PropOp36
 70
     1
102
RTVSPost2010Prop37
 90
       50
102
RTVSPost2010PropOp37
 70
     1
102
RTVSPost2010Prop38
140
0.0
102
RTVSPost2010PropOp38
 70
     1
102
RTVSPost2010Prop39
140
1.0
102
RTVSPost2010PropOp39
 70
     1
102
RTVSPost2010Prop40
 90
        0
102
RTVSPost2010PropOp40
 70
     1
102
RTVSPost2010Prop41ColorIndex
 90
       18
102
RTVSPost2010Prop41ColorRGB
 90
        0
102
RTVSPost2010PropOp41
 70
     1
102
RTVSPost2010Prop42
 90
       50
102
RTVSPost2010PropOp42
 70
     1
102
RTVSPost2010Prop43
 90
        3
102
RTVSPost2010PropOp43
 70
     1
102
RTVSPost2010Prop44ColorIndex
 90
        5
102
RTVSPost2010Prop44ColorRGB
 90
      255
102
RTVSPost2010PropOp44
 70
     1
102
RTVSPost2010Prop45
280
     0
102
RTVSPost2010PropOp45
 70
     1
102
RTVSPost2010Prop46
 90
       50
102
RTVSPost2010PropOp46
 70
     1
102
RTVSPost2010Prop47
 90
       50
102
RTVSPost2010PropOp47
 70
     1
102
RTVSPost2010Prop48
 90
       50
102
RTVSPost2010PropOp48
 70
     1
102
RTVSPost2010Prop49
280
     0
102
RTVSPost2010PropOp49
 70
     1
102
RTVSPost2010Prop50
 90
       50
102
RTVSPost2010PropOp50
 70
     1
102
RTVSPost2010Prop51ColorIndex
 90
      256
102
RTVSPost2010Prop51ColorRGB
 90
-16777216
102
RTVSPost2010PropOp51
 70
     0
102
RTVSPost2010Prop52
140
1.0
102
RTVSPost2010PropOp52
 70
     0
102
RTVSPost2010Prop53
 90
        2
102
RTVSPost2010PropOp53
 70
     1
102
RTVSPost2010Prop54
  1
strokes_ogs.tif
102
RTVSPost2010PropOp54
 70
     1
102
RTVSPost2010Prop55
280
     0
102
RTVSPost2010PropOp55
 70
     1
102
RTVSPost2010Prop56
140
1.0
102
RTVSPost2010PropOp56
 70
     1
102
RTVSPost2010Prop57
140
1.0
102
RTVSPost2010PropOp57
 70
     1
102
RTVSPropertyOp0
 70
     1
102
RTVSPropertyOp1
 70
     1
102
RTVSPropertyOp2
 70
     1
102
RTVSPropertyOp3
 70
     1
102
RTVSPropertyOp4
 70
     1
102
RTVSPropertyOp5
 70
     1
102
RTVSPropertyOp6
 70
     1
102
RTVSPropertyOp7
 70
     1
102
RTVSPropertyOp8
 70
     1
102
RTVSPropertyOp9
 70
     1
102
RTVSPropertyOp10
 70
     1
102
RTVSPropertyOp11
 70
     1
102
RTVSPropertyOp12
 70
     1
102
RTVSPropertyOp13
 70
     1
102
RTVSPropertyOp14
 70
     1
102
RTVSPropertyOp15
 70
     1
102
RTVSPropertyOp16
 70
     1
102
RTVSPropertyOp17
 70
     1
102
RTVSPropertyOp18
 70
     1
102
RTVSPropertyOp19
 70
     1
102
RTVSPropertyOp20
 70
     1
102
RTVSPropertyOp21
 70
     1
102
RTVSPropertyOp22
 70
     1
102
RTVSPropertyOp23
 70
     1
102
RTVSPropertyOp24
 70
     1
102
RTVSPropertyOp25
 70
     1
102
RTVSPropertyOp26
 70
     1
102
RTVSPropertyOp27
 70
     1
102
RTVSPropertyOp28
 70
     1
102
RTVSPropertyOp29
 70
     1
102
RTVSPropertyOp30
 70
     1
102
RTVSPropertyOp31
 70
     1
102
RTVSPropertyOp32
 70
     1
102
RTVSPropertyOp33
 70
     1
102
RTVSPropertyOp34
 70
     1
102
RTVSPropertyOp35
 70
     1
102
RTVSPropertyOp36
 70
     1
102
RTVSPropertyOp37
 70
     1
102
RTVSPropertyOp38
 70
     1
102
RTVSPropertyOp39
 70
     1
102
RTVSPropertyOp40
 70
     1
102
RTVSPropertyOp41
 70
     1
102
RTVSPropertyOp42
 70
     1
102
RTVSPropertyOp43
 70
     1
102
RTVSPropertyOp44
 70
     1
102
RTVSPropertyOp45
 70
     1
102
RTVSPropertyOp46
 70
     1
102
RTVSPropertyOp47
 70
     1
102
RTVSPropertyOp48
 70
     1
102
RTVSPropertyOp49
 70
     1
102
RTVSPropertyOp50
 70
     1
102
RTVSPropertyOp51
 70
     0
102
RTVSPropertyOp52
 70
     0
102
RTVSPropertyOp53
 70
     1
102
RTVSPropertyOp54
 70
     1
102
RTVSPropertyOp55
 70
     1
102
RTVSPropertyOp56
 70
     1
102
RTVSPropertyOp57
 70
     1
102
RTVSPropertyOp58
 70
     1
102
RTVSPropertyOp59
 70
     1
102
RTVSPropertyOp60
 70
     1
102
RTVSPropertyOp61
 70
     1
102
RTVSPropertyOp62
 70
     1
  0
XRECORD
  5
522
102
{ACAD_REACTORS
330
521
102
}
330
521
100
AcDbXrecord
280
     1
102
RTVSPost2010Prop28
280
     0
102
RTVSPost2010PropOp28
 70
     1
102
RTVSPost2010Prop29
280
     1
102
RTVSPost2010PropOp29
 70
     1
102
RTVSPost2010Prop30
280
     1
102
RTVSPost2010PropOp30
 70
     1
102
RTVSPost2010Prop31
280
     0
102
RTVSPost2010PropOp31
 70
     1
102
RTVSPost2010Prop32
280
     0
102
RTVSPost2010PropOp32
 70
     1
102
RTVSPost2010Prop33
280
     0
102
RTVSPost2010PropOp33
 70
     1
102
RTVSPost2010Prop34
280
     0
102
RTVSPost2010PropOp34
 70
     1
102
RTVSPost2010Prop35
280
     0
102
RTVSPost2010PropOp35
 70
     1
102
RTVSPost2010Prop36
280
     0
102
RTVSPost2010PropOp36
 70
     1
102
RTVSPost2010Prop37
 90
       50
102
RTVSPost2010PropOp37
 70
     1
102
RTVSPost2010Prop38
140
0.0
102
RTVSPost2010PropOp38
 70
     1
102
RTVSPost2010Prop39
140
1.0
102
RTVSPost2010PropOp39
 70
     1
102
RTVSPost2010Prop40
 90
        0
102
RTVSPost2010PropOp40
 70
     1
102
RTVSPost2010Prop41ColorIndex
 90
       18
102
RTVSPost2010Prop41ColorRGB
 90
        0
102
RTVSPost2010PropOp41
 70
     1
102
RTVSPost2010Prop42
 90
       50
102
RTVSPost2010PropOp42
 70
     1
102
RTVSPost2010Prop43
 90
        3
102
RTVSPost2010PropOp43
 70
     1
102
RTVSPost2010Prop44ColorIndex
 90
        5
102
RTVSPost2010Prop44ColorRGB
 90
      255
102
RTVSPost2010PropOp44
 70
     1
102
RTVSPost2010Prop45
280
     0
102
RTVSPost2010PropOp45
 70
     1
102
RTVSPost2010Prop46
 90
       50
102
RTVSPost2010PropOp46
 70
     1
102
RTVSPost2010Prop47
 90
       50
102
RTVSPost2010PropOp47
 70
     1
102
RTVSPost2010Prop48
 90
       50
102
RTVSPost2010PropOp48
 70
     1
102
RTVSPost2010Prop49
280
     0
102
RTVSPost2010PropOp49
 70
     1
102
RTVSPost2010Prop50
 90
       50
102
RTVSPost2010PropOp50
 70
     1
102
RTVSPost2010Prop51ColorIndex
 90
      256
102
RTVSPost2010Prop51ColorRGB
 90
-16777216
102
RTVSPost2010PropOp51
 70
     0
102
RTVSPost2010Prop52
140
1.0
102
RTVSPost2010PropOp52
 70
     0
102
RTVSPost2010Prop53
 90
        2
102
RTVSPost2010PropOp53
 70
     1
102
RTVSPost2010Prop54
  1
strokes_ogs.tif
102
RTVSPost2010PropOp54
 70
     1
102
RTVSPost2010Prop55
280
     0
102
RTVSPost2010PropOp55
 70
     1
102
RTVSPost2010Prop56
140
1.0
102
RTVSPost2010PropOp56
 70
     1
102
RTVSPost2010Prop57
140
1.0
102
RTVSPost2010PropOp57
 70
     1
102
RTVSPropertyOp0
 70
     0
102
RTVSPropertyOp1
 70
     0
102
RTVSPropertyOp2
 70
     0
102
RTVSPropertyOp3
 70
     0
102
RTVSPropertyOp4
 70
     0
102
RTVSPropertyOp5
 70
     0
102
RTVSPropertyOp6
 70
     0
102
RTVSPropertyOp7
 70
     0
102
RTVSPropertyOp8
 70
     0
102
RTVSPropertyOp9
 70
     0
102
RTVSPropertyOp10
 70
     0
102
RTVSPropertyOp11
 70
     0
102
RTVSPropertyOp12
 70
     0
102
RTVSPropertyOp13
 70
     0
102
RTVSPropertyOp14
 70
     0
102
RTVSPropertyOp15
 70
     0
102
RTVSPropertyOp16
 70
     0
102
RTVSPropertyOp17
 70
     0
102
RTVSPropertyOp18
 70
     0
102
RTVSPropertyOp19
 70
     0
102
RTVSPropertyOp20
 70
     0
102
RTVSPropertyOp21
 70
     0
102
RTVSPropertyOp22
 70
     0
102
RTVSPropertyOp23
 70
     0
102
RTVSPropertyOp24
 70
     0
102
RTVSPropertyOp25
 70
     0
102
RTVSPropertyOp26
 70
     0
102
RTVSPropertyOp27
 70
     0
102
RTVSPropertyOp28
 70
     1
102
RTVSPropertyOp29
 70
     1
102
RTVSPropertyOp30
 70
     1
102
RTVSPropertyOp31
 70
     1
102
RTVSPropertyOp32
 70
     1
102
RTVSPropertyOp33
 70
     1
102
RTVSPropertyOp34
 70
     1
102
RTVSPropertyOp35
 70
     1
102
RTVSPropertyOp36
 70
     1
102
RTVSPropertyOp37
 70
     1
102
RTVSPropertyOp38
 70
     1
102
RTVSPropertyOp39
 70
     1
102
RTVSPropertyOp40
 70
     1
102
RTVSPropertyOp41
 70
     1
102
RTVSPropertyOp42
 70
     1
102
RTVSPropertyOp43
 70
     1
102
RTVSPropertyOp44
 70
     1
102
RTVSPropertyOp45
 70
     1
102
RTVSPropertyOp46
 70
     1
102
RTVSPropertyOp47
 70
     1
102
RTVSPropertyOp48
 70
     1
102
RTVSPropertyOp49
 70
     1
102
RTVSPropertyOp50
 70
     1
102
RTVSPropertyOp51
 70
     0
102
RTVSPropertyOp52
 70
     0
102
RTVSPropertyOp53
 70
     1
102
RTVSPropertyOp54
 70
     1
102
RTVSPropertyOp55
 70
     1
102
RTVSPropertyOp56
 70
     1
102
RTVSPropertyOp57
 70
     1
102
RTVSPropertyOp58
 70
     1
102
RTVSPropertyOp59
 70
     1
102
RTVSPropertyOp60
 70
     1
102
RTVSPropertyOp61
 70
     1
102
RTVSPropertyOp62
 70
     1
  0
XRECORD
  5
51A
102
{ACAD_REACTORS
330
519
102
}
330
519
100
AcDbXrecord
280
     1
102
RTVSPost2010Prop28
280
     0
102
RTVSPost2010PropOp28
 70
     1
102
RTVSPost2010Prop29
280
     1
102
RTVSPost2010PropOp29
 70
     1
102
RTVSPost2010Prop30
280
     1
102
RTVSPost2010PropOp30
 70
     1
102
RTVSPost2010Prop31
280
     0
102
RTVSPost2010PropOp31
 70
     1
102
RTVSPost2010Prop32
280
     0
102
RTVSPost2010PropOp32
 70
     1
102
RTVSPost2010Prop33
280
     0
102
RTVSPost2010PropOp33
 70
     1
102
RTVSPost2010Prop34
280
     0
102
RTVSPost2010PropOp34
 70
     1
102
RTVSPost2010Prop35
280
     0
102
RTVSPost2010PropOp35
 70
     1
102
RTVSPost2010Prop36
280
     0
102
RTVSPost2010PropOp36
 70
     1
102
RTVSPost2010Prop37
 90
       50
102
RTVSPost2010PropOp37
 70
     1
102
RTVSPost2010Prop38
140
0.0
102
RTVSPost2010PropOp38
 70
     1
102
RTVSPost2010Prop39
140
1.0
102
RTVSPost2010PropOp39
 70
     1
102
RTVSPost2010Prop40
 90
        0
102
RTVSPost2010PropOp40
 70
     1
102
RTVSPost2010Prop41ColorIndex
 90
       18
102
RTVSPost2010Prop41ColorRGB
 90
        0
102
RTVSPost2010PropOp41
 70
     1
102
RTVSPost2010Prop42
 90
       50
102
RTVSPost2010PropOp42
 70
     1
102
RTVSPost2010Prop43
 90
        3
102
RTVSPost2010PropOp43
 70
     1
102
RTVSPost2010Prop44ColorIndex
 90
        5
102
RTVSPost2010Prop44ColorRGB
 90
      255
102
RTVSPost2010PropOp44
 70
     1
102
RTVSPost2010Prop45
280
     0
102
RTVSPost2010PropOp45
 70
     1
102
RTVSPost2010Prop46
 90
       50
102
RTVSPost2010PropOp46
 70
     1
102
RTVSPost2010Prop47
 90
       50
102
RTVSPost2010PropOp47
 70
     1
102
RTVSPost2010Prop48
 90
       50
102
RTVSPost2010PropOp48
 70
     1
102
RTVSPost2010Prop49
280
     0
102
RTVSPost2010PropOp49
 70
     1
102
RTVSPost2010Prop50
 90
       50
102
RTVSPost2010PropOp50
 70
     1
102
RTVSPost2010Prop51ColorIndex
 90
      256
102
RTVSPost2010Prop51ColorRGB
 90
-16777216
102
RTVSPost2010PropOp51
 70
     0
102
RTVSPost2010Prop52
140
1.0
102
RTVSPost2010PropOp52
 70
     0
102
RTVSPost2010Prop53
 90
        2
102
RTVSPost2010PropOp53
 70
     1
102
RTVSPost2010Prop54
  1
strokes_ogs.tif
102
RTVSPost2010PropOp54
 70
     1
102
RTVSPost2010Prop55
280
     0
102
RTVSPost2010PropOp55
 70
     1
102
RTVSPost2010Prop56
140
1.0
102
RTVSPost2010PropOp56
 70
     1
102
RTVSPost2010Prop57
140
1.0
102
RTVSPost2010PropOp57
 70
     1
102
RTVSPropertyOp0
 70
     1
102
RTVSPropertyOp1
 70
     1
102
RTVSPropertyOp2
 70
     1
102
RTVSPropertyOp3
 70
     1
102
RTVSPropertyOp4
 70
     1
102
RTVSPropertyOp5
 70
     1
102
RTVSPropertyOp6
 70
     1
102
RTVSPropertyOp7
 70
     1
102
RTVSPropertyOp8
 70
     1
102
RTVSPropertyOp9
 70
     1
102
RTVSPropertyOp10
 70
     1
102
RTVSPropertyOp11
 70
     1
102
RTVSPropertyOp12
 70
     1
102
RTVSPropertyOp13
 70
     1
102
RTVSPropertyOp14
 70
     1
102
RTVSPropertyOp15
 70
     1
102
RTVSPropertyOp16
 70
     1
102
RTVSPropertyOp17
 70
     1
102
RTVSPropertyOp18
 70
     1
102
RTVSPropertyOp19
 70
     1
102
RTVSPropertyOp20
 70
     1
102
RTVSPropertyOp21
 70
     1
102
RTVSPropertyOp22
 70
     1
102
RTVSPropertyOp23
 70
     1
102
RTVSPropertyOp24
 70
     1
102
RTVSPropertyOp25
 70
     1
102
RTVSPropertyOp26
 70
     1
102
RTVSPropertyOp27
 70
     1
102
RTVSPropertyOp28
 70
     1
102
RTVSPropertyOp29
 70
     1
102
RTVSPropertyOp30
 70
     1
102
RTVSPropertyOp31
 70
     1
102
RTVSPropertyOp32
 70
     1
102
RTVSPropertyOp33
 70
     1
102
RTVSPropertyOp34
 70
     1
102
RTVSPropertyOp35
 70
     1
102
RTVSPropertyOp36
 70
     1
102
RTVSPropertyOp37
 70
     1
102
RTVSPropertyOp38
 70
     1
102
RTVSPropertyOp39
 70
     1
102
RTVSPropertyOp40
 70
     1
102
RTVSPropertyOp41
 70
     1
102
RTVSPropertyOp42
 70
     1
102
RTVSPropertyOp43
 70
     1
102
RTVSPropertyOp44
 70
     1
102
RTVSPropertyOp45
 70
     1
102
RTVSPropertyOp46
 70
     1
102
RTVSPropertyOp47
 70
     1
102
RTVSPropertyOp48
 70
     1
102
RTVSPropertyOp49
 70
     1
102
RTVSPropertyOp50
 70
     1
102
RTVSPropertyOp51
 70
     0
102
RTVSPropertyOp52
 70
     0
102
RTVSPropertyOp53
 70
     1
102
RTVSPropertyOp54
 70
     1
102
RTVSPropertyOp55
 70
     1
102
RTVSPropertyOp56
 70
     1
102
RTVSPropertyOp57
 70
     1
102
RTVSPropertyOp58
 70
     1
102
RTVSPropertyOp59
 70
     1
102
RTVSPropertyOp60
 70
     1
102
RTVSPropertyOp61
 70
     1
102
RTVSPropertyOp62
 70
     1
  0
XRECORD
  5
4FE
102
{ACAD_REACTORS
330
4FD
102
}
330
4FD
100
AcDbXrecord
280
     1
102
RTVSPost2010Prop28
280
     0
102
RTVSPost2010PropOp28
 70
     1
102
RTVSPost2010Prop29
280
     1
102
RTVSPost2010PropOp29
 70
     1
102
RTVSPost2010Prop30
280
     1
102
RTVSPost2010PropOp30
 70
     1
102
RTVSPost2010Prop31
280
     0
102
RTVSPost2010PropOp31
 70
     1
102
RTVSPost2010Prop32
280
     0
102
RTVSPost2010PropOp32
 70
     1
102
RTVSPost2010Prop33
280
     0
102
RTVSPost2010PropOp33
 70
     1
102
RTVSPost2010Prop34
280
     0
102
RTVSPost2010PropOp34
 70
     1
102
RTVSPost2010Prop35
280
     0
102
RTVSPost2010PropOp35
 70
     1
102
RTVSPost2010Prop36
280
     0
102
RTVSPost2010PropOp36
 70
     1
102
RTVSPost2010Prop37
 90
       50
102
RTVSPost2010PropOp37
 70
     1
102
RTVSPost2010Prop38
140
0.0
102
RTVSPost2010PropOp38
 70
     1
102
RTVSPost2010Prop39
140
1.0
102
RTVSPost2010PropOp39
 70
     1
102
RTVSPost2010Prop40
 90
        0
102
RTVSPost2010PropOp40
 70
     1
102
RTVSPost2010Prop41ColorIndex
 90
       18
102
RTVSPost2010Prop41ColorRGB
 90
        0
102
RTVSPost2010PropOp41
 70
     1
102
RTVSPost2010Prop42
 90
       50
102
RTVSPost2010PropOp42
 70
     1
102
RTVSPost2010Prop43
 90
        3
102
RTVSPost2010PropOp43
 70
     1
102
RTVSPost2010Prop44ColorIndex
 90
        5
102
RTVSPost2010Prop44ColorRGB
 90
      255
102
RTVSPost2010PropOp44
 70
     1
102
RTVSPost2010Prop45
280
     0
102
RTVSPost2010PropOp45
 70
     1
102
RTVSPost2010Prop46
 90
       50
102
RTVSPost2010PropOp46
 70
     1
102
RTVSPost2010Prop47
 90
       50
102
RTVSPost2010PropOp47
 70
     1
102
RTVSPost2010Prop48
 90
       50
102
RTVSPost2010PropOp48
 70
     1
102
RTVSPost2010Prop49
280
     0
102
RTVSPost2010PropOp49
 70
     1
102
RTVSPost2010Prop50
 90
       50
102
RTVSPost2010PropOp50
 70
     1
102
RTVSPost2010Prop51ColorIndex
 90
      256
102
RTVSPost2010Prop51ColorRGB
 90
-16777216
102
RTVSPost2010PropOp51
 70
     0
102
RTVSPost2010Prop52
140
1.0
102
RTVSPost2010PropOp52
 70
     0
102
RTVSPost2010Prop53
 90
        2
102
RTVSPost2010PropOp53
 70
     1
102
RTVSPost2010Prop54
  1
strokes_ogs.tif
102
RTVSPost2010PropOp54
 70
     1
102
RTVSPost2010Prop55
280
     0
102
RTVSPost2010PropOp55
 70
     1
102
RTVSPost2010Prop56
140
1.0
102
RTVSPost2010PropOp56
 70
     1
102
RTVSPost2010Prop57
140
1.0
102
RTVSPost2010PropOp57
 70
     1
102
RTVSPropertyOp0
 70
     1
102
RTVSPropertyOp1
 70
     1
102
RTVSPropertyOp2
 70
     1
102
RTVSPropertyOp3
 70
     1
102
RTVSPropertyOp4
 70
     1
102
RTVSPropertyOp5
 70
     1
102
RTVSPropertyOp6
 70
     1
102
RTVSPropertyOp7
 70
     1
102
RTVSPropertyOp8
 70
     1
102
RTVSPropertyOp9
 70
     1
102
RTVSPropertyOp10
 70
     1
102
RTVSPropertyOp11
 70
     1
102
RTVSPropertyOp12
 70
     1
102
RTVSPropertyOp13
 70
     1
102
RTVSPropertyOp14
 70
     1
102
RTVSPropertyOp15
 70
     1
102
RTVSPropertyOp16
 70
     1
102
RTVSPropertyOp17
 70
     1
102
RTVSPropertyOp18
 70
     1
102
RTVSPropertyOp19
 70
     1
102
RTVSPropertyOp20
 70
     1
102
RTVSPropertyOp21
 70
     1
102
RTVSPropertyOp22
 70
     1
102
RTVSPropertyOp23
 70
     1
102
RTVSPropertyOp24
 70
     1
102
RTVSPropertyOp25
 70
     1
102
RTVSPropertyOp26
 70
     1
102
RTVSPropertyOp27
 70
     1
102
RTVSPropertyOp28
 70
     1
102
RTVSPropertyOp29
 70
     1
102
RTVSPropertyOp30
 70
     1
102
RTVSPropertyOp31
 70
     1
102
RTVSPropertyOp32
 70
     1
102
RTVSPropertyOp33
 70
     1
102
RTVSPropertyOp34
 70
     1
102
RTVSPropertyOp35
 70
     1
102
RTVSPropertyOp36
 70
     1
102
RTVSPropertyOp37
 70
     1
102
RTVSPropertyOp38
 70
     1
102
RTVSPropertyOp39
 70
     1
102
RTVSPropertyOp40
 70
     1
102
RTVSPropertyOp41
 70
     1
102
RTVSPropertyOp42
 70
     1
102
RTVSPropertyOp43
 70
     1
102
RTVSPropertyOp44
 70
     1
102
RTVSPropertyOp45
 70
     1
102
RTVSPropertyOp46
 70
     1
102
RTVSPropertyOp47
 70
     1
102
RTVSPropertyOp48
 70
     1
102
RTVSPropertyOp49
 70
     1
102
RTVSPropertyOp50
 70
     1
102
RTVSPropertyOp51
 70
     0
102
RTVSPropertyOp52
 70
     0
102
RTVSPropertyOp53
 70
     1
102
RTVSPropertyOp54
 70
     1
102
RTVSPropertyOp55
 70
     1
102
RTVSPropertyOp56
 70
     1
102
RTVSPropertyOp57
 70
     1
102
RTVSPropertyOp58
 70
     1
102
RTVSPropertyOp59
 70
     1
102
RTVSPropertyOp60
 70
     1
102
RTVSPropertyOp61
 70
     1
102
RTVSPropertyOp62
 70
     1
  0
XRECORD
  5
500
102
{ACAD_REACTORS
330
4FF
102
}
330
4FF
100
AcDbXrecord
280
     1
102
RTVSPost2010Prop28
280
     0
102
RTVSPost2010PropOp28
 70
     1
102
RTVSPost2010Prop29
280
     1
102
RTVSPost2010PropOp29
 70
     1
102
RTVSPost2010Prop30
280
     1
102
RTVSPost2010PropOp30
 70
     1
102
RTVSPost2010Prop31
280
     0
102
RTVSPost2010PropOp31
 70
     1
102
RTVSPost2010Prop32
280
     0
102
RTVSPost2010PropOp32
 70
     1
102
RTVSPost2010Prop33
280
     0
102
RTVSPost2010PropOp33
 70
     1
102
RTVSPost2010Prop34
280
     0
102
RTVSPost2010PropOp34
 70
     1
102
RTVSPost2010Prop35
280
     0
102
RTVSPost2010PropOp35
 70
     1
102
RTVSPost2010Prop36
280
     0
102
RTVSPost2010PropOp36
 70
     1
102
RTVSPost2010Prop37
 90
       50
102
RTVSPost2010PropOp37
 70
     1
102
RTVSPost2010Prop38
140
0.0
102
RTVSPost2010PropOp38
 70
     1
102
RTVSPost2010Prop39
140
1.0
102
RTVSPost2010PropOp39
 70
     1
102
RTVSPost2010Prop40
 90
        0
102
RTVSPost2010PropOp40
 70
     1
102
RTVSPost2010Prop41ColorIndex
 90
       18
102
RTVSPost2010Prop41ColorRGB
 90
        0
102
RTVSPost2010PropOp41
 70
     1
102
RTVSPost2010Prop42
 90
       50
102
RTVSPost2010PropOp42
 70
     1
102
RTVSPost2010Prop43
 90
        3
102
RTVSPost2010PropOp43
 70
     1
102
RTVSPost2010Prop44ColorIndex
 90
        5
102
RTVSPost2010Prop44ColorRGB
 90
      255
102
RTVSPost2010PropOp44
 70
     1
102
RTVSPost2010Prop45
280
     0
102
RTVSPost2010PropOp45
 70
     1
102
RTVSPost2010Prop46
 90
       50
102
RTVSPost2010PropOp46
 70
     1
102
RTVSPost2010Prop47
 90
       50
102
RTVSPost2010PropOp47
 70
     1
102
RTVSPost2010Prop48
 90
       50
102
RTVSPost2010PropOp48
 70
     1
102
RTVSPost2010Prop49
280
     0
102
RTVSPost2010PropOp49
 70
     1
102
RTVSPost2010Prop50
 90
       50
102
RTVSPost2010PropOp50
 70
     1
102
RTVSPost2010Prop51ColorIndex
 90
      256
102
RTVSPost2010Prop51ColorRGB
 90
-16777216
102
RTVSPost2010PropOp51
 70
     0
102
RTVSPost2010Prop52
140
1.0
102
RTVSPost2010PropOp52
 70
     0
102
RTVSPost2010Prop53
 90
        2
102
RTVSPost2010PropOp53
 70
     1
102
RTVSPost2010Prop54
  1
strokes_ogs.tif
102
RTVSPost2010PropOp54
 70
     1
102
RTVSPost2010Prop55
280
     0
102
RTVSPost2010PropOp55
 70
     1
102
RTVSPost2010Prop56
140
1.0
102
RTVSPost2010PropOp56
 70
     1
102
RTVSPost2010Prop57
140
1.0
102
RTVSPost2010PropOp57
 70
     1
102
RTVSPropertyOp0
 70
     1
102
RTVSPropertyOp1
 70
     1
102
RTVSPropertyOp2
 70
     1
102
RTVSPropertyOp3
 70
     1
102
RTVSPropertyOp4
 70
     1
102
RTVSPropertyOp5
 70
     1
102
RTVSPropertyOp6
 70
     1
102
RTVSPropertyOp7
 70
     1
102
RTVSPropertyOp8
 70
     1
102
RTVSPropertyOp9
 70
     1
102
RTVSPropertyOp10
 70
     1
102
RTVSPropertyOp11
 70
     1
102
RTVSPropertyOp12
 70
     1
102
RTVSPropertyOp13
 70
     1
102
RTVSPropertyOp14
 70
     1
102
RTVSPropertyOp15
 70
     1
102
RTVSPropertyOp16
 70
     1
102
RTVSPropertyOp17
 70
     1
102
RTVSPropertyOp18
 70
     1
102
RTVSPropertyOp19
 70
     1
102
RTVSPropertyOp20
 70
     1
102
RTVSPropertyOp21
 70
     1
102
RTVSPropertyOp22
 70
     1
102
RTVSPropertyOp23
 70
     1
102
RTVSPropertyOp24
 70
     1
102
RTVSPropertyOp25
 70
     1
102
RTVSPropertyOp26
 70
     1
102
RTVSPropertyOp27
 70
     1
102
RTVSPropertyOp28
 70
     1
102
RTVSPropertyOp29
 70
     1
102
RTVSPropertyOp30
 70
     1
102
RTVSPropertyOp31
 70
     1
102
RTVSPropertyOp32
 70
     1
102
RTVSPropertyOp33
 70
     1
102
RTVSPropertyOp34
 70
     1
102
RTVSPropertyOp35
 70
     1
102
RTVSPropertyOp36
 70
     1
102
RTVSPropertyOp37
 70
     1
102
RTVSPropertyOp38
 70
     1
102
RTVSPropertyOp39
 70
     1
102
RTVSPropertyOp40
 70
     1
102
RTVSPropertyOp41
 70
     1
102
RTVSPropertyOp42
 70
     1
102
RTVSPropertyOp43
 70
     1
102
RTVSPropertyOp44
 70
     1
102
RTVSPropertyOp45
 70
     1
102
RTVSPropertyOp46
 70
     1
102
RTVSPropertyOp47
 70
     1
102
RTVSPropertyOp48
 70
     1
102
RTVSPropertyOp49
 70
     1
102
RTVSPropertyOp50
 70
     1
102
RTVSPropertyOp51
 70
     0
102
RTVSPropertyOp52
 70
     0
102
RTVSPropertyOp53
 70
     1
102
RTVSPropertyOp54
 70
     1
102
RTVSPropertyOp55
 70
     1
102
RTVSPropertyOp56
 70
     1
102
RTVSPropertyOp57
 70
     1
102
RTVSPropertyOp58
 70
     1
102
RTVSPropertyOp59
 70
     1
102
RTVSPropertyOp60
 70
     1
102
RTVSPropertyOp61
 70
     1
102
RTVSPropertyOp62
 70
     1
  0
XRECORD
  5
502
102
{ACAD_REACTORS
330
501
102
}
330
501
100
AcDbXrecord
280
     1
102
RTVSPost2010Prop28
280
     0
102
RTVSPost2010PropOp28
 70
     1
102
RTVSPost2010Prop29
280
     1
102
RTVSPost2010PropOp29
 70
     1
102
RTVSPost2010Prop30
280
     1
102
RTVSPost2010PropOp30
 70
     1
102
RTVSPost2010Prop31
280
     0
102
RTVSPost2010PropOp31
 70
     1
102
RTVSPost2010Prop32
280
     0
102
RTVSPost2010PropOp32
 70
     1
102
RTVSPost2010Prop33
280
     0
102
RTVSPost2010PropOp33
 70
     1
102
RTVSPost2010Prop34
280
     0
102
RTVSPost2010PropOp34
 70
     1
102
RTVSPost2010Prop35
280
     0
102
RTVSPost2010PropOp35
 70
     1
102
RTVSPost2010Prop36
280
     0
102
RTVSPost2010PropOp36
 70
     1
102
RTVSPost2010Prop37
 90
       50
102
RTVSPost2010PropOp37
 70
     1
102
RTVSPost2010Prop38
140
0.0
102
RTVSPost2010PropOp38
 70
     1
102
RTVSPost2010Prop39
140
1.0
102
RTVSPost2010PropOp39
 70
     1
102
RTVSPost2010Prop40
 90
        0
102
RTVSPost2010PropOp40
 70
     1
102
RTVSPost2010Prop41ColorIndex
 90
       18
102
RTVSPost2010Prop41ColorRGB
 90
        0
102
RTVSPost2010PropOp41
 70
     1
102
RTVSPost2010Prop42
 90
       50
102
RTVSPost2010PropOp42
 70
     1
102
RTVSPost2010Prop43
 90
        3
102
RTVSPost2010PropOp43
 70
     1
102
RTVSPost2010Prop44ColorIndex
 90
        5
102
RTVSPost2010Prop44ColorRGB
 90
      255
102
RTVSPost2010PropOp44
 70
     1
102
RTVSPost2010Prop45
280
     0
102
RTVSPost2010PropOp45
 70
     1
102
RTVSPost2010Prop46
 90
       50
102
RTVSPost2010PropOp46
 70
     1
102
RTVSPost2010Prop47
 90
       50
102
RTVSPost2010PropOp47
 70
     1
102
RTVSPost2010Prop48
 90
       50
102
RTVSPost2010PropOp48
 70
     1
102
RTVSPost2010Prop49
280
     0
102
RTVSPost2010PropOp49
 70
     1
102
RTVSPost2010Prop50
 90
       50
102
RTVSPost2010PropOp50
 70
     1
102
RTVSPost2010Prop51ColorIndex
 90
      256
102
RTVSPost2010Prop51ColorRGB
 90
-16777216
102
RTVSPost2010PropOp51
 70
     0
102
RTVSPost2010Prop52
140
1.0
102
RTVSPost2010PropOp52
 70
     0
102
RTVSPost2010Prop53
 90
        2
102
RTVSPost2010PropOp53
 70
     1
102
RTVSPost2010Prop54
  1
strokes_ogs.tif
102
RTVSPost2010PropOp54
 70
     1
102
RTVSPost2010Prop55
280
     0
102
RTVSPost2010PropOp55
 70
     1
102
RTVSPost2010Prop56
140
1.0
102
RTVSPost2010PropOp56
 70
     1
102
RTVSPost2010Prop57
140
1.0
102
RTVSPost2010PropOp57
 70
     1
102
RTVSPropertyOp0
 70
     1
102
RTVSPropertyOp1
 70
     1
102
RTVSPropertyOp2
 70
     1
102
RTVSPropertyOp3
 70
     1
102
RTVSPropertyOp4
 70
     1
102
RTVSPropertyOp5
 70
     1
102
RTVSPropertyOp6
 70
     1
102
RTVSPropertyOp7
 70
     1
102
RTVSPropertyOp8
 70
     1
102
RTVSPropertyOp9
 70
     1
102
RTVSPropertyOp10
 70
     1
102
RTVSPropertyOp11
 70
     1
102
RTVSPropertyOp12
 70
     1
102
RTVSPropertyOp13
 70
     1
102
RTVSPropertyOp14
 70
     1
102
RTVSPropertyOp15
 70
     1
102
RTVSPropertyOp16
 70
     1
102
RTVSPropertyOp17
 70
     1
102
RTVSPropertyOp18
 70
     1
102
RTVSPropertyOp19
 70
     1
102
RTVSPropertyOp20
 70
     1
102
RTVSPropertyOp21
 70
     1
102
RTVSPropertyOp22
 70
     1
102
RTVSPropertyOp23
 70
     1
102
RTVSPropertyOp24
 70
     1
102
RTVSPropertyOp25
 70
     1
102
RTVSPropertyOp26
 70
     1
102
RTVSPropertyOp27
 70
     1
102
RTVSPropertyOp28
 70
     1
102
RTVSPropertyOp29
 70
     1
102
RTVSPropertyOp30
 70
     1
102
RTVSPropertyOp31
 70
     1
102
RTVSPropertyOp32
 70
     1
102
RTVSPropertyOp33
 70
     1
102
RTVSPropertyOp34
 70
     1
102
RTVSPropertyOp35
 70
     1
102
RTVSPropertyOp36
 70
     1
102
RTVSPropertyOp37
 70
     1
102
RTVSPropertyOp38
 70
     1
102
RTVSPropertyOp39
 70
     1
102
RTVSPropertyOp40
 70
     1
102
RTVSPropertyOp41
 70
     1
102
RTVSPropertyOp42
 70
     1
102
RTVSPropertyOp43
 70
     1
102
RTVSPropertyOp44
 70
     1
102
RTVSPropertyOp45
 70
     1
102
RTVSPropertyOp46
 70
     1
102
RTVSPropertyOp47
 70
     1
102
RTVSPropertyOp48
 70
     1
102
RTVSPropertyOp49
 70
     1
102
RTVSPropertyOp50
 70
     1
102
RTVSPropertyOp51
 70
     0
102
RTVSPropertyOp52
 70
     0
102
RTVSPropertyOp53
 70
     1
102
RTVSPropertyOp54
 70
     1
102
RTVSPropertyOp55
 70
     1
102
RTVSPropertyOp56
 70
     1
102
RTVSPropertyOp57
 70
     1
102
RTVSPropertyOp58
 70
     1
102
RTVSPropertyOp59
 70
     1
102
RTVSPropertyOp60
 70
     1
102
RTVSPropertyOp61
 70
     1
102
RTVSPropertyOp62
 70
     1
  0
XRECORD
  5
504
102
{ACAD_REACTORS
330
503
102
}
330
503
100
AcDbXrecord
280
     1
102
RTVSPost2010Prop28
280
     0
102
RTVSPost2010PropOp28
 70
     1
102
RTVSPost2010Prop29
280
     1
102
RTVSPost2010PropOp29
 70
     1
102
RTVSPost2010Prop30
280
     1
102
RTVSPost2010PropOp30
 70
     1
102
RTVSPost2010Prop31
280
     0
102
RTVSPost2010PropOp31
 70
     1
102
RTVSPost2010Prop32
280
     0
102
RTVSPost2010PropOp32
 70
     1
102
RTVSPost2010Prop33
280
     0
102
RTVSPost2010PropOp33
 70
     1
102
RTVSPost2010Prop34
280
     0
102
RTVSPost2010PropOp34
 70
     1
102
RTVSPost2010Prop35
280
     0
102
RTVSPost2010PropOp35
 70
     1
102
RTVSPost2010Prop36
280
     0
102
RTVSPost2010PropOp36
 70
     1
102
RTVSPost2010Prop37
 90
       50
102
RTVSPost2010PropOp37
 70
     1
102
RTVSPost2010Prop38
140
0.0
102
RTVSPost2010PropOp38
 70
     1
102
RTVSPost2010Prop39
140
1.0
102
RTVSPost2010PropOp39
 70
     1
102
RTVSPost2010Prop40
 90
        0
102
RTVSPost2010PropOp40
 70
     1
102
RTVSPost2010Prop41ColorIndex
 90
       18
102
RTVSPost2010Prop41ColorRGB
 90
        0
102
RTVSPost2010PropOp41
 70
     1
102
RTVSPost2010Prop42
 90
       50
102
RTVSPost2010PropOp42
 70
     1
102
RTVSPost2010Prop43
 90
        3
102
RTVSPost2010PropOp43
 70
     1
102
RTVSPost2010Prop44ColorIndex
 90
        5
102
RTVSPost2010Prop44ColorRGB
 90
      255
102
RTVSPost2010PropOp44
 70
     1
102
RTVSPost2010Prop45
280
     0
102
RTVSPost2010PropOp45
 70
     1
102
RTVSPost2010Prop46
 90
       50
102
RTVSPost2010PropOp46
 70
     1
102
RTVSPost2010Prop47
 90
       50
102
RTVSPost2010PropOp47
 70
     1
102
RTVSPost2010Prop48
 90
       50
102
RTVSPost2010PropOp48
 70
     1
102
RTVSPost2010Prop49
280
     0
102
RTVSPost2010PropOp49
 70
     1
102
RTVSPost2010Prop50
 90
       50
102
RTVSPost2010PropOp50
 70
     1
102
RTVSPost2010Prop51ColorIndex
 90
      256
102
RTVSPost2010Prop51ColorRGB
 90
-16777216
102
RTVSPost2010PropOp51
 70
     0
102
RTVSPost2010Prop52
140
1.0
102
RTVSPost2010PropOp52
 70
     0
102
RTVSPost2010Prop53
 90
        2
102
RTVSPost2010PropOp53
 70
     1
102
RTVSPost2010Prop54
  1
strokes_ogs.tif
102
RTVSPost2010PropOp54
 70
     1
102
RTVSPost2010Prop55
280
     0
102
RTVSPost2010PropOp55
 70
     1
102
RTVSPost2010Prop56
140
1.0
102
RTVSPost2010PropOp56
 70
     1
102
RTVSPost2010Prop57
140
1.0
102
RTVSPost2010PropOp57
 70
     1
102
RTVSPropertyOp0
 70
     1
102
RTVSPropertyOp1
 70
     1
102
RTVSPropertyOp2
 70
     1
102
RTVSPropertyOp3
 70
     1
102
RTVSPropertyOp4
 70
     1
102
RTVSPropertyOp5
 70
     1
102
RTVSPropertyOp6
 70
     1
102
RTVSPropertyOp7
 70
     1
102
RTVSPropertyOp8
 70
     1
102
RTVSPropertyOp9
 70
     1
102
RTVSPropertyOp10
 70
     1
102
RTVSPropertyOp11
 70
     1
102
RTVSPropertyOp12
 70
     1
102
RTVSPropertyOp13
 70
     1
102
RTVSPropertyOp14
 70
     1
102
RTVSPropertyOp15
 70
     1
102
RTVSPropertyOp16
 70
     1
102
RTVSPropertyOp17
 70
     1
102
RTVSPropertyOp18
 70
     1
102
RTVSPropertyOp19
 70
     1
102
RTVSPropertyOp20
 70
     1
102
RTVSPropertyOp21
 70
     1
102
RTVSPropertyOp22
 70
     1
102
RTVSPropertyOp23
 70
     1
102
RTVSPropertyOp24
 70
     1
102
RTVSPropertyOp25
 70
     1
102
RTVSPropertyOp26
 70
     1
102
RTVSPropertyOp27
 70
     1
102
RTVSPropertyOp28
 70
     1
102
RTVSPropertyOp29
 70
     1
102
RTVSPropertyOp30
 70
     1
102
RTVSPropertyOp31
 70
     1
102
RTVSPropertyOp32
 70
     1
102
RTVSPropertyOp33
 70
     1
102
RTVSPropertyOp34
 70
     1
102
RTVSPropertyOp35
 70
     1
102
RTVSPropertyOp36
 70
     1
102
RTVSPropertyOp37
 70
     1
102
RTVSPropertyOp38
 70
     1
102
RTVSPropertyOp39
 70
     1
102
RTVSPropertyOp40
 70
     1
102
RTVSPropertyOp41
 70
     1
102
RTVSPropertyOp42
 70
     1
102
RTVSPropertyOp43
 70
     1
102
RTVSPropertyOp44
 70
     1
102
RTVSPropertyOp45
 70
     1
102
RTVSPropertyOp46
 70
     1
102
RTVSPropertyOp47
 70
     1
102
RTVSPropertyOp48
 70
     1
102
RTVSPropertyOp49
 70
     1
102
RTVSPropertyOp50
 70
     1
102
RTVSPropertyOp51
 70
     0
102
RTVSPropertyOp52
 70
     0
102
RTVSPropertyOp53
 70
     1
102
RTVSPropertyOp54
 70
     1
102
RTVSPropertyOp55
 70
     1
102
RTVSPropertyOp56
 70
     1
102
RTVSPropertyOp57
 70
     1
102
RTVSPropertyOp58
 70
     1
102
RTVSPropertyOp59
 70
     1
102
RTVSPropertyOp60
 70
     1
102
RTVSPropertyOp61
 70
     1
102
RTVSPropertyOp62
 70
     1
  0
XRECORD
  5
50A
102
{ACAD_REACTORS
330
509
102
}
330
509
100
AcDbXrecord
280
     1
102
RTVSPost2010Prop28
280
     0
102
RTVSPost2010PropOp28
 70
     1
102
RTVSPost2010Prop29
280
     1
102
RTVSPost2010PropOp29
 70
     1
102
RTVSPost2010Prop30
280
     1
102
RTVSPost2010PropOp30
 70
     1
102
RTVSPost2010Prop31
280
     0
102
RTVSPost2010PropOp31
 70
     1
102
RTVSPost2010Prop32
280
     0
102
RTVSPost2010PropOp32
 70
     1
102
RTVSPost2010Prop33
280
     0
102
RTVSPost2010PropOp33
 70
     1
102
RTVSPost2010Prop34
280
     0
102
RTVSPost2010PropOp34
 70
     1
102
RTVSPost2010Prop35
280
     0
102
RTVSPost2010PropOp35
 70
     1
102
RTVSPost2010Prop36
280
     0
102
RTVSPost2010PropOp36
 70
     1
102
RTVSPost2010Prop37
 90
       50
102
RTVSPost2010PropOp37
 70
     1
102
RTVSPost2010Prop38
140
0.0
102
RTVSPost2010PropOp38
 70
     1
102
RTVSPost2010Prop39
140
1.0
102
RTVSPost2010PropOp39
 70
     1
102
RTVSPost2010Prop40
 90
        0
102
RTVSPost2010PropOp40
 70
     1
102
RTVSPost2010Prop41ColorIndex
 90
       18
102
RTVSPost2010Prop41ColorRGB
 90
        0
102
RTVSPost2010PropOp41
 70
     1
102
RTVSPost2010Prop42
 90
       50
102
RTVSPost2010PropOp42
 70
     1
102
RTVSPost2010Prop43
 90
        3
102
RTVSPost2010PropOp43
 70
     1
102
RTVSPost2010Prop44ColorIndex
 90
        5
102
RTVSPost2010Prop44ColorRGB
 90
      255
102
RTVSPost2010PropOp44
 70
     1
102
RTVSPost2010Prop45
280
     0
102
RTVSPost2010PropOp45
 70
     1
102
RTVSPost2010Prop46
 90
       50
102
RTVSPost2010PropOp46
 70
     1
102
RTVSPost2010Prop47
 90
       50
102
RTVSPost2010PropOp47
 70
     1
102
RTVSPost2010Prop48
 90
       50
102
RTVSPost2010PropOp48
 70
     1
102
RTVSPost2010Prop49
280
     0
102
RTVSPost2010PropOp49
 70
     1
102
RTVSPost2010Prop50
 90
       50
102
RTVSPost2010PropOp50
 70
     1
102
RTVSPost2010Prop51ColorIndex
 90
      256
102
RTVSPost2010Prop51ColorRGB
 90
-16777216
102
RTVSPost2010PropOp51
 70
     0
102
RTVSPost2010Prop52
140
1.0
102
RTVSPost2010PropOp52
 70
     0
102
RTVSPost2010Prop53
 90
        2
102
RTVSPost2010PropOp53
 70
     1
102
RTVSPost2010Prop54
  1
strokes_ogs.tif
102
RTVSPost2010PropOp54
 70
     1
102
RTVSPost2010Prop55
280
     0
102
RTVSPost2010PropOp55
 70
     1
102
RTVSPost2010Prop56
140
1.0
102
RTVSPost2010PropOp56
 70
     1
102
RTVSPost2010Prop57
140
1.0
102
RTVSPost2010PropOp57
 70
     1
102
RTVSPropertyOp0
 70
     1
102
RTVSPropertyOp1
 70
     1
102
RTVSPropertyOp2
 70
     1
102
RTVSPropertyOp3
 70
     1
102
RTVSPropertyOp4
 70
     1
102
RTVSPropertyOp5
 70
     1
102
RTVSPropertyOp6
 70
     1
102
RTVSPropertyOp7
 70
     1
102
RTVSPropertyOp8
 70
     1
102
RTVSPropertyOp9
 70
     1
102
RTVSPropertyOp10
 70
     1
102
RTVSPropertyOp11
 70
     1
102
RTVSPropertyOp12
 70
     1
102
RTVSPropertyOp13
 70
     1
102
RTVSPropertyOp14
 70
     1
102
RTVSPropertyOp15
 70
     1
102
RTVSPropertyOp16
 70
     1
102
RTVSPropertyOp17
 70
     1
102
RTVSPropertyOp18
 70
     1
102
RTVSPropertyOp19
 70
     1
102
RTVSPropertyOp20
 70
     1
102
RTVSPropertyOp21
 70
     1
102
RTVSPropertyOp22
 70
     1
102
RTVSPropertyOp23
 70
     1
102
RTVSPropertyOp24
 70
     1
102
RTVSPropertyOp25
 70
     1
102
RTVSPropertyOp26
 70
     1
102
RTVSPropertyOp27
 70
     1
102
RTVSPropertyOp28
 70
     1
102
RTVSPropertyOp29
 70
     1
102
RTVSPropertyOp30
 70
     1
102
RTVSPropertyOp31
 70
     1
102
RTVSPropertyOp32
 70
     1
102
RTVSPropertyOp33
 70
     1
102
RTVSPropertyOp34
 70
     1
102
RTVSPropertyOp35
 70
     1
102
RTVSPropertyOp36
 70
     1
102
RTVSPropertyOp37
 70
     1
102
RTVSPropertyOp38
 70
     1
102
RTVSPropertyOp39
 70
     1
102
RTVSPropertyOp40
 70
     1
102
RTVSPropertyOp41
 70
     1
102
RTVSPropertyOp42
 70
     1
102
RTVSPropertyOp43
 70
     1
102
RTVSPropertyOp44
 70
     1
102
RTVSPropertyOp45
 70
     1
102
RTVSPropertyOp46
 70
     1
102
RTVSPropertyOp47
 70
     1
102
RTVSPropertyOp48
 70
     1
102
RTVSPropertyOp49
 70
     1
102
RTVSPropertyOp50
 70
     1
102
RTVSPropertyOp51
 70
     0
102
RTVSPropertyOp52
 70
     0
102
RTVSPropertyOp53
 70
     1
102
RTVSPropertyOp54
 70
     1
102
RTVSPropertyOp55
 70
     1
102
RTVSPropertyOp56
 70
     1
102
RTVSPropertyOp57
 70
     1
102
RTVSPropertyOp58
 70
     1
102
RTVSPropertyOp59
 70
     1
102
RTVSPropertyOp60
 70
     1
102
RTVSPropertyOp61
 70
     1
102
RTVSPropertyOp62
 70
     1
  0
XRECORD
  5
51E
102
{ACAD_REACTORS
330
51D
102
}
330
51D
100
AcDbXrecord
280
     1
102
RTVSPost2010Prop28
280
     0
102
RTVSPost2010PropOp28
 70
     1
102
RTVSPost2010Prop29
280
     1
102
RTVSPost2010PropOp29
 70
     1
102
RTVSPost2010Prop30
280
     1
102
RTVSPost2010PropOp30
 70
     1
102
RTVSPost2010Prop31
280
     0
102
RTVSPost2010PropOp31
 70
     1
102
RTVSPost2010Prop32
280
     0
102
RTVSPost2010PropOp32
 70
     1
102
RTVSPost2010Prop33
280
     0
102
RTVSPost2010PropOp33
 70
     1
102
RTVSPost2010Prop34
280
     0
102
RTVSPost2010PropOp34
 70
     1
102
RTVSPost2010Prop35
280
     0
102
RTVSPost2010PropOp35
 70
     1
102
RTVSPost2010Prop36
280
     0
102
RTVSPost2010PropOp36
 70
     1
102
RTVSPost2010Prop37
 90
       50
102
RTVSPost2010PropOp37
 70
     1
102
RTVSPost2010Prop38
140
0.0
102
RTVSPost2010PropOp38
 70
     1
102
RTVSPost2010Prop39
140
1.0
102
RTVSPost2010PropOp39
 70
     1
102
RTVSPost2010Prop40
 90
        0
102
RTVSPost2010PropOp40
 70
     1
102
RTVSPost2010Prop41ColorIndex
 90
       18
102
RTVSPost2010Prop41ColorRGB
 90
        0
102
RTVSPost2010PropOp41
 70
     1
102
RTVSPost2010Prop42
 90
       50
102
RTVSPost2010PropOp42
 70
     1
102
RTVSPost2010Prop43
 90
        3
102
RTVSPost2010PropOp43
 70
     1
102
RTVSPost2010Prop44ColorIndex
 90
        5
102
RTVSPost2010Prop44ColorRGB
 90
      255
102
RTVSPost2010PropOp44
 70
     1
102
RTVSPost2010Prop45
280
     0
102
RTVSPost2010PropOp45
 70
     1
102
RTVSPost2010Prop46
 90
       50
102
RTVSPost2010PropOp46
 70
     1
102
RTVSPost2010Prop47
 90
       50
102
RTVSPost2010PropOp47
 70
     1
102
RTVSPost2010Prop48
 90
       50
102
RTVSPost2010PropOp48
 70
     1
102
RTVSPost2010Prop49
280
     0
102
RTVSPost2010PropOp49
 70
     1
102
RTVSPost2010Prop50
 90
       50
102
RTVSPost2010PropOp50
 70
     1
102
RTVSPost2010Prop51ColorIndex
 90
      256
102
RTVSPost2010Prop51ColorRGB
 90
-16777216
102
RTVSPost2010PropOp51
 70
     0
102
RTVSPost2010Prop52
140
1.0
102
RTVSPost2010PropOp52
 70
     0
102
RTVSPost2010Prop53
 90
        2
102
RTVSPost2010PropOp53
 70
     1
102
RTVSPost2010Prop54
  1
strokes_ogs.tif
102
RTVSPost2010PropOp54
 70
     1
102
RTVSPost2010Prop55
280
     0
102
RTVSPost2010PropOp55
 70
     1
102
RTVSPost2010Prop56
140
1.0
102
RTVSPost2010PropOp56
 70
     1
102
RTVSPost2010Prop57
140
1.0
102
RTVSPost2010PropOp57
 70
     1
102
RTVSPropertyOp0
 70
     0
102
RTVSPropertyOp1
 70
     0
102
RTVSPropertyOp2
 70
     0
102
RTVSPropertyOp3
 70
     0
102
RTVSPropertyOp4
 70
     0
102
RTVSPropertyOp5
 70
     0
102
RTVSPropertyOp6
 70
     0
102
RTVSPropertyOp7
 70
     0
102
RTVSPropertyOp8
 70
     0
102
RTVSPropertyOp9
 70
     0
102
RTVSPropertyOp10
 70
     0
102
RTVSPropertyOp11
 70
     0
102
RTVSPropertyOp12
 70
     0
102
RTVSPropertyOp13
 70
     0
102
RTVSPropertyOp14
 70
     0
102
RTVSPropertyOp15
 70
     0
102
RTVSPropertyOp16
 70
     0
102
RTVSPropertyOp17
 70
     0
102
RTVSPropertyOp18
 70
     0
102
RTVSPropertyOp19
 70
     0
102
RTVSPropertyOp20
 70
     0
102
RTVSPropertyOp21
 70
     0
102
RTVSPropertyOp22
 70
     0
102
RTVSPropertyOp23
 70
     0
102
RTVSPropertyOp24
 70
     0
102
RTVSPropertyOp25
 70
     0
102
RTVSPropertyOp26
 70
     0
102
RTVSPropertyOp27
 70
     0
102
RTVSPropertyOp28
 70
     1
102
RTVSPropertyOp29
 70
     1
102
RTVSPropertyOp30
 70
     1
102
RTVSPropertyOp31
 70
     1
102
RTVSPropertyOp32
 70
     1
102
RTVSPropertyOp33
 70
     1
102
RTVSPropertyOp34
 70
     1
102
RTVSPropertyOp35
 70
     1
102
RTVSPropertyOp36
 70
     1
102
RTVSPropertyOp37
 70
     1
102
RTVSPropertyOp38
 70
     1
102
RTVSPropertyOp39
 70
     1
102
RTVSPropertyOp40
 70
     1
102
RTVSPropertyOp41
 70
     1
102
RTVSPropertyOp42
 70
     1
102
RTVSPropertyOp43
 70
     1
102
RTVSPropertyOp44
 70
     1
102
RTVSPropertyOp45
 70
     1
102
RTVSPropertyOp46
 70
     1
102
RTVSPropertyOp47
 70
     1
102
RTVSPropertyOp48
 70
     1
102
RTVSPropertyOp49
 70
     1
102
RTVSPropertyOp50
 70
     1
102
RTVSPropertyOp51
 70
     0
102
RTVSPropertyOp52
 70
     0
102
RTVSPropertyOp53
 70
     1
102
RTVSPropertyOp54
 70
     1
102
RTVSPropertyOp55
 70
     1
102
RTVSPropertyOp56
 70
     1
102
RTVSPropertyOp57
 70
     1
102
RTVSPropertyOp58
 70
     1
102
RTVSPropertyOp59
 70
     1
102
RTVSPropertyOp60
 70
     1
102
RTVSPropertyOp61
 70
     1
102
RTVSPropertyOp62
 70
     1
  0
XRECORD
  5
518
102
{ACAD_REACTORS
330
517
102
}
330
517
100
AcDbXrecord
280
     1
102
RTVSPost2010Prop28
280
     0
102
RTVSPost2010PropOp28
 70
     1
102
RTVSPost2010Prop29
280
     1
102
RTVSPost2010PropOp29
 70
     1
102
RTVSPost2010Prop30
280
     1
102
RTVSPost2010PropOp30
 70
     1
102
RTVSPost2010Prop31
280
     0
102
RTVSPost2010PropOp31
 70
     1
102
RTVSPost2010Prop32
280
     0
102
RTVSPost2010PropOp32
 70
     1
102
RTVSPost2010Prop33
280
     0
102
RTVSPost2010PropOp33
 70
     1
102
RTVSPost2010Prop34
280
     0
102
RTVSPost2010PropOp34
 70
     1
102
RTVSPost2010Prop35
280
     0
102
RTVSPost2010PropOp35
 70
     1
102
RTVSPost2010Prop36
280
     0
102
RTVSPost2010PropOp36
 70
     1
102
RTVSPost2010Prop37
 90
       50
102
RTVSPost2010PropOp37
 70
     1
102
RTVSPost2010Prop38
140
0.0
102
RTVSPost2010PropOp38
 70
     1
102
RTVSPost2010Prop39
140
1.0
102
RTVSPost2010PropOp39
 70
     1
102
RTVSPost2010Prop40
 90
        0
102
RTVSPost2010PropOp40
 70
     1
102
RTVSPost2010Prop41ColorIndex
 90
       18
102
RTVSPost2010Prop41ColorRGB
 90
        0
102
RTVSPost2010PropOp41
 70
     1
102
RTVSPost2010Prop42
 90
       50
102
RTVSPost2010PropOp42
 70
     1
102
RTVSPost2010Prop43
 90
        3
102
RTVSPost2010PropOp43
 70
     1
102
RTVSPost2010Prop44ColorIndex
 90
        5
102
RTVSPost2010Prop44ColorRGB
 90
      255
102
RTVSPost2010PropOp44
 70
     1
102
RTVSPost2010Prop45
280
     0
102
RTVSPost2010PropOp45
 70
     1
102
RTVSPost2010Prop46
 90
       50
102
RTVSPost2010PropOp46
 70
     1
102
RTVSPost2010Prop47
 90
       50
102
RTVSPost2010PropOp47
 70
     1
102
RTVSPost2010Prop48
 90
       50
102
RTVSPost2010PropOp48
 70
     1
102
RTVSPost2010Prop49
280
     0
102
RTVSPost2010PropOp49
 70
     1
102
RTVSPost2010Prop50
 90
       50
102
RTVSPost2010PropOp50
 70
     1
102
RTVSPost2010Prop51ColorIndex
 90
      256
102
RTVSPost2010Prop51ColorRGB
 90
-16777216
102
RTVSPost2010PropOp51
 70
     0
102
RTVSPost2010Prop52
140
1.0
102
RTVSPost2010PropOp52
 70
     0
102
RTVSPost2010Prop53
 90
        2
102
RTVSPost2010PropOp53
 70
     1
102
RTVSPost2010Prop54
  1
strokes_ogs.tif
102
RTVSPost2010PropOp54
 70
     1
102
RTVSPost2010Prop55
280
     0
102
RTVSPost2010PropOp55
 70
     1
102
RTVSPost2010Prop56
140
1.0
102
RTVSPost2010PropOp56
 70
     1
102
RTVSPost2010Prop57
140
1.0
102
RTVSPost2010PropOp57
 70
     1
102
RTVSPropertyOp0
 70
     1
102
RTVSPropertyOp1
 70
     1
102
RTVSPropertyOp2
 70
     1
102
RTVSPropertyOp3
 70
     1
102
RTVSPropertyOp4
 70
     1
102
RTVSPropertyOp5
 70
     1
102
RTVSPropertyOp6
 70
     1
102
RTVSPropertyOp7
 70
     1
102
RTVSPropertyOp8
 70
     1
102
RTVSPropertyOp9
 70
     1
102
RTVSPropertyOp10
 70
     1
102
RTVSPropertyOp11
 70
     1
102
RTVSPropertyOp12
 70
     1
102
RTVSPropertyOp13
 70
     1
102
RTVSPropertyOp14
 70
     1
102
RTVSPropertyOp15
 70
     1
102
RTVSPropertyOp16
 70
     1
102
RTVSPropertyOp17
 70
     1
102
RTVSPropertyOp18
 70
     1
102
RTVSPropertyOp19
 70
     1
102
RTVSPropertyOp20
 70
     1
102
RTVSPropertyOp21
 70
     1
102
RTVSPropertyOp22
 70
     1
102
RTVSPropertyOp23
 70
     1
102
RTVSPropertyOp24
 70
     1
102
RTVSPropertyOp25
 70
     1
102
RTVSPropertyOp26
 70
     1
102
RTVSPropertyOp27
 70
     1
102
RTVSPropertyOp28
 70
     1
102
RTVSPropertyOp29
 70
     1
102
RTVSPropertyOp30
 70
     1
102
RTVSPropertyOp31
 70
     1
102
RTVSPropertyOp32
 70
     1
102
RTVSPropertyOp33
 70
     1
102
RTVSPropertyOp34
 70
     1
102
RTVSPropertyOp35
 70
     1
102
RTVSPropertyOp36
 70
     1
102
RTVSPropertyOp37
 70
     1
102
RTVSPropertyOp38
 70
     1
102
RTVSPropertyOp39
 70
     1
102
RTVSPropertyOp40
 70
     1
102
RTVSPropertyOp41
 70
     1
102
RTVSPropertyOp42
 70
     1
102
RTVSPropertyOp43
 70
     1
102
RTVSPropertyOp44
 70
     1
102
RTVSPropertyOp45
 70
     1
102
RTVSPropertyOp46
 70
     1
102
RTVSPropertyOp47
 70
     1
102
RTVSPropertyOp48
 70
     1
102
RTVSPropertyOp49
 70
     1
102
RTVSPropertyOp50
 70
     1
102
RTVSPropertyOp51
 70
     0
102
RTVSPropertyOp52
 70
     0
102
RTVSPropertyOp53
 70
     1
102
RTVSPropertyOp54
 70
     1
102
RTVSPropertyOp55
 70
     1
102
RTVSPropertyOp56
 70
     1
102
RTVSPropertyOp57
 70
     1
102
RTVSPropertyOp58
 70
     1
102
RTVSPropertyOp59
 70
     1
102
RTVSPropertyOp60
 70
     1
102
RTVSPropertyOp61
 70
     1
102
RTVSPropertyOp62
 70
     1
  0
XRECORD
  5
520
102
{ACAD_REACTORS
330
51F
102
}
330
51F
100
AcDbXrecord
280
     1
102
RTVSPost2010Prop28
280
     0
102
RTVSPost2010PropOp28
 70
     1
102
RTVSPost2010Prop29
280
     1
102
RTVSPost2010PropOp29
 70
     1
102
RTVSPost2010Prop30
280
     1
102
RTVSPost2010PropOp30
 70
     1
102
RTVSPost2010Prop31
280
     0
102
RTVSPost2010PropOp31
 70
     1
102
RTVSPost2010Prop32
280
     0
102
RTVSPost2010PropOp32
 70
     1
102
RTVSPost2010Prop33
280
     0
102
RTVSPost2010PropOp33
 70
     1
102
RTVSPost2010Prop34
280
     0
102
RTVSPost2010PropOp34
 70
     1
102
RTVSPost2010Prop35
280
     0
102
RTVSPost2010PropOp35
 70
     1
102
RTVSPost2010Prop36
280
     0
102
RTVSPost2010PropOp36
 70
     1
102
RTVSPost2010Prop37
 90
       50
102
RTVSPost2010PropOp37
 70
     1
102
RTVSPost2010Prop38
140
0.0
102
RTVSPost2010PropOp38
 70
     1
102
RTVSPost2010Prop39
140
1.0
102
RTVSPost2010PropOp39
 70
     1
102
RTVSPost2010Prop40
 90
        0
102
RTVSPost2010PropOp40
 70
     1
102
RTVSPost2010Prop41ColorIndex
 90
       18
102
RTVSPost2010Prop41ColorRGB
 90
        0
102
RTVSPost2010PropOp41
 70
     1
102
RTVSPost2010Prop42
 90
       50
102
RTVSPost2010PropOp42
 70
     1
102
RTVSPost2010Prop43
 90
        3
102
RTVSPost2010PropOp43
 70
     1
102
RTVSPost2010Prop44ColorIndex
 90
        5
102
RTVSPost2010Prop44ColorRGB
 90
      255
102
RTVSPost2010PropOp44
 70
     1
102
RTVSPost2010Prop45
280
     0
102
RTVSPost2010PropOp45
 70
     1
102
RTVSPost2010Prop46
 90
       50
102
RTVSPost2010PropOp46
 70
     1
102
RTVSPost2010Prop47
 90
       50
102
RTVSPost2010PropOp47
 70
     1
102
RTVSPost2010Prop48
 90
       50
102
RTVSPost2010PropOp48
 70
     1
102
RTVSPost2010Prop49
280
     0
102
RTVSPost2010PropOp49
 70
     1
102
RTVSPost2010Prop50
 90
       50
102
RTVSPost2010PropOp50
 70
     1
102
RTVSPost2010Prop51ColorIndex
 90
      256
102
RTVSPost2010Prop51ColorRGB
 90
-16777216
102
RTVSPost2010PropOp51
 70
     0
102
RTVSPost2010Prop52
140
1.0
102
RTVSPost2010PropOp52
 70
     0
102
RTVSPost2010Prop53
 90
        2
102
RTVSPost2010PropOp53
 70
     1
102
RTVSPost2010Prop54
  1
strokes_ogs.tif
102
RTVSPost2010PropOp54
 70
     1
102
RTVSPost2010Prop55
280
     0
102
RTVSPost2010PropOp55
 70
     1
102
RTVSPost2010Prop56
140
1.0
102
RTVSPost2010PropOp56
 70
     1
102
RTVSPost2010Prop57
140
1.0
102
RTVSPost2010PropOp57
 70
     1
102
RTVSPropertyOp0
 70
     0
102
RTVSPropertyOp1
 70
     0
102
RTVSPropertyOp2
 70
     0
102
RTVSPropertyOp3
 70
     0
102
RTVSPropertyOp4
 70
     0
102
RTVSPropertyOp5
 70
     0
102
RTVSPropertyOp6
 70
     0
102
RTVSPropertyOp7
 70
     0
102
RTVSPropertyOp8
 70
     0
102
RTVSPropertyOp9
 70
     0
102
RTVSPropertyOp10
 70
     0
102
RTVSPropertyOp11
 70
     0
102
RTVSPropertyOp12
 70
     0
102
RTVSPropertyOp13
 70
     0
102
RTVSPropertyOp14
 70
     0
102
RTVSPropertyOp15
 70
     0
102
RTVSPropertyOp16
 70
     0
102
RTVSPropertyOp17
 70
     0
102
RTVSPropertyOp18
 70
     0
102
RTVSPropertyOp19
 70
     0
102
RTVSPropertyOp20
 70
     0
102
RTVSPropertyOp21
 70
     0
102
RTVSPropertyOp22
 70
     0
102
RTVSPropertyOp23
 70
     0
102
RTVSPropertyOp24
 70
     0
102
RTVSPropertyOp25
 70
     0
102
RTVSPropertyOp26
 70
     0
102
RTVSPropertyOp27
 70
     0
102
RTVSPropertyOp28
 70
     1
102
RTVSPropertyOp29
 70
     1
102
RTVSPropertyOp30
 70
     1
102
RTVSPropertyOp31
 70
     1
102
RTVSPropertyOp32
 70
     1
102
RTVSPropertyOp33
 70
     1
102
RTVSPropertyOp34
 70
     1
102
RTVSPropertyOp35
 70
     1
102
RTVSPropertyOp36
 70
     1
102
RTVSPropertyOp37
 70
     1
102
RTVSPropertyOp38
 70
     1
102
RTVSPropertyOp39
 70
     1
102
RTVSPropertyOp40
 70
     1
102
RTVSPropertyOp41
 70
     1
102
RTVSPropertyOp42
 70
     1
102
RTVSPropertyOp43
 70
     1
102
RTVSPropertyOp44
 70
     1
102
RTVSPropertyOp45
 70
     1
102
RTVSPropertyOp46
 70
     1
102
RTVSPropertyOp47
 70
     1
102
RTVSPropertyOp48
 70
     1
102
RTVSPropertyOp49
 70
     1
102
RTVSPropertyOp50
 70
     1
102
RTVSPropertyOp51
 70
     0
102
RTVSPropertyOp52
 70
     0
102
RTVSPropertyOp53
 70
     1
102
RTVSPropertyOp54
 70
     1
102
RTVSPropertyOp55
 70
     1
102
RTVSPropertyOp56
 70
     1
102
RTVSPropertyOp57
 70
     1
102
RTVSPropertyOp58
 70
     1
102
RTVSPropertyOp59
 70
     1
102
RTVSPropertyOp60
 70
     1
102
RTVSPropertyOp61
 70
     1
102
RTVSPropertyOp62
 70
     1
  0
XRECORD
  5
50E
102
{ACAD_REACTORS
330
50D
102
}
330
50D
100
AcDbXrecord
280
     1
102
RTVSPost2010Prop28
280
     0
102
RTVSPost2010PropOp28
 70
     1
102
RTVSPost2010Prop29
280
     1
102
RTVSPost2010PropOp29
 70
     1
102
RTVSPost2010Prop30
280
     1
102
RTVSPost2010PropOp30
 70
     1
102
RTVSPost2010Prop31
280
     0
102
RTVSPost2010PropOp31
 70
     1
102
RTVSPost2010Prop32
280
     0
102
RTVSPost2010PropOp32
 70
     1
102
RTVSPost2010Prop33
280
     0
102
RTVSPost2010PropOp33
 70
     1
102
RTVSPost2010Prop34
280
     0
102
RTVSPost2010PropOp34
 70
     1
102
RTVSPost2010Prop35
280
     0
102
RTVSPost2010PropOp35
 70
     1
102
RTVSPost2010Prop36
280
     0
102
RTVSPost2010PropOp36
 70
     1
102
RTVSPost2010Prop37
 90
       50
102
RTVSPost2010PropOp37
 70
     1
102
RTVSPost2010Prop38
140
0.0
102
RTVSPost2010PropOp38
 70
     1
102
RTVSPost2010Prop39
140
1.0
102
RTVSPost2010PropOp39
 70
     1
102
RTVSPost2010Prop40
 90
        0
102
RTVSPost2010PropOp40
 70
     1
102
RTVSPost2010Prop41ColorIndex
 90
       18
102
RTVSPost2010Prop41ColorRGB
 90
        0
102
RTVSPost2010PropOp41
 70
     1
102
RTVSPost2010Prop42
 90
       50
102
RTVSPost2010PropOp42
 70
     1
102
RTVSPost2010Prop43
 90
        3
102
RTVSPost2010PropOp43
 70
     1
102
RTVSPost2010Prop44ColorIndex
 90
        5
102
RTVSPost2010Prop44ColorRGB
 90
      255
102
RTVSPost2010PropOp44
 70
     1
102
RTVSPost2010Prop45
280
     0
102
RTVSPost2010PropOp45
 70
     1
102
RTVSPost2010Prop46
 90
       50
102
RTVSPost2010PropOp46
 70
     1
102
RTVSPost2010Prop47
 90
       50
102
RTVSPost2010PropOp47
 70
     1
102
RTVSPost2010Prop48
 90
       50
102
RTVSPost2010PropOp48
 70
     1
102
RTVSPost2010Prop49
280
     0
102
RTVSPost2010PropOp49
 70
     1
102
RTVSPost2010Prop50
 90
       50
102
RTVSPost2010PropOp50
 70
     1
102
RTVSPost2010Prop51ColorIndex
 90
      256
102
RTVSPost2010Prop51ColorRGB
 90
-16777216
102
RTVSPost2010PropOp51
 70
     0
102
RTVSPost2010Prop52
140
1.0
102
RTVSPost2010PropOp52
 70
     0
102
RTVSPost2010Prop53
 90
        2
102
RTVSPost2010PropOp53
 70
     1
102
RTVSPost2010Prop54
  1
strokes_ogs.tif
102
RTVSPost2010PropOp54
 70
     1
102
RTVSPost2010Prop55
280
     0
102
RTVSPost2010PropOp55
 70
     1
102
RTVSPost2010Prop56
140
1.0
102
RTVSPost2010PropOp56
 70
     1
102
RTVSPost2010Prop57
140
1.0
102
RTVSPost2010PropOp57
 70
     1
102
RTVSPropertyOp0
 70
     1
102
RTVSPropertyOp1
 70
     1
102
RTVSPropertyOp2
 70
     1
102
RTVSPropertyOp3
 70
     1
102
RTVSPropertyOp4
 70
     1
102
RTVSPropertyOp5
 70
     1
102
RTVSPropertyOp6
 70
     1
102
RTVSPropertyOp7
 70
     1
102
RTVSPropertyOp8
 70
     1
102
RTVSPropertyOp9
 70
     1
102
RTVSPropertyOp10
 70
     1
102
RTVSPropertyOp11
 70
     1
102
RTVSPropertyOp12
 70
     1
102
RTVSPropertyOp13
 70
     1
102
RTVSPropertyOp14
 70
     1
102
RTVSPropertyOp15
 70
     1
102
RTVSPropertyOp16
 70
     1
102
RTVSPropertyOp17
 70
     1
102
RTVSPropertyOp18
 70
     1
102
RTVSPropertyOp19
 70
     1
102
RTVSPropertyOp20
 70
     1
102
RTVSPropertyOp21
 70
     1
102
RTVSPropertyOp22
 70
     1
102
RTVSPropertyOp23
 70
     1
102
RTVSPropertyOp24
 70
     1
102
RTVSPropertyOp25
 70
     1
102
RTVSPropertyOp26
 70
     1
102
RTVSPropertyOp27
 70
     1
102
RTVSPropertyOp28
 70
     1
102
RTVSPropertyOp29
 70
     1
102
RTVSPropertyOp30
 70
     1
102
RTVSPropertyOp31
 70
     1
102
RTVSPropertyOp32
 70
     1
102
RTVSPropertyOp33
 70
     1
102
RTVSPropertyOp34
 70
     1
102
RTVSPropertyOp35
 70
     1
102
RTVSPropertyOp36
 70
     1
102
RTVSPropertyOp37
 70
     1
102
RTVSPropertyOp38
 70
     1
102
RTVSPropertyOp39
 70
     1
102
RTVSPropertyOp40
 70
     1
102
RTVSPropertyOp41
 70
     1
102
RTVSPropertyOp42
 70
     1
102
RTVSPropertyOp43
 70
     1
102
RTVSPropertyOp44
 70
     1
102
RTVSPropertyOp45
 70
     1
102
RTVSPropertyOp46
 70
     1
102
RTVSPropertyOp47
 70
     1
102
RTVSPropertyOp48
 70
     1
102
RTVSPropertyOp49
 70
     1
102
RTVSPropertyOp50
 70
     1
102
RTVSPropertyOp51
 70
     0
102
RTVSPropertyOp52
 70
     0
102
RTVSPropertyOp53
 70
     1
102
RTVSPropertyOp54
 70
     1
102
RTVSPropertyOp55
 70
     1
102
RTVSPropertyOp56
 70
     1
102
RTVSPropertyOp57
 70
     1
102
RTVSPropertyOp58
 70
     1
102
RTVSPropertyOp59
 70
     1
102
RTVSPropertyOp60
 70
     1
102
RTVSPropertyOp61
 70
     1
102
RTVSPropertyOp62
 70
     1
  0
XRECORD
  5
52C
102
{ACAD_REACTORS
330
52B
102
}
330
52B
100
AcDbXrecord
280
     1
102
RTVSPost2010Prop28
280
     0
102
RTVSPost2010PropOp28
 70
     1
102
RTVSPost2010Prop29
280
     1
102
RTVSPost2010PropOp29
 70
     1
102
RTVSPost2010Prop30
280
     1
102
RTVSPost2010PropOp30
 70
     1
102
RTVSPost2010Prop31
280
     0
102
RTVSPost2010PropOp31
 70
     1
102
RTVSPost2010Prop32
280
     0
102
RTVSPost2010PropOp32
 70
     1
102
RTVSPost2010Prop33
280
     0
102
RTVSPost2010PropOp33
 70
     1
102
RTVSPost2010Prop34
280
     0
102
RTVSPost2010PropOp34
 70
     1
102
RTVSPost2010Prop35
280
     0
102
RTVSPost2010PropOp35
 70
     1
102
RTVSPost2010Prop36
280
     0
102
RTVSPost2010PropOp36
 70
     1
102
RTVSPost2010Prop37
 90
       50
102
RTVSPost2010PropOp37
 70
     1
102
RTVSPost2010Prop38
140
0.0
102
RTVSPost2010PropOp38
 70
     1
102
RTVSPost2010Prop39
140
1.0
102
RTVSPost2010PropOp39
 70
     1
102
RTVSPost2010Prop40
 90
        0
102
RTVSPost2010PropOp40
 70
     1
102
RTVSPost2010Prop41ColorIndex
 90
       18
102
RTVSPost2010Prop41ColorRGB
 90
        0
102
RTVSPost2010PropOp41
 70
     1
102
RTVSPost2010Prop42
 90
       50
102
RTVSPost2010PropOp42
 70
     1
102
RTVSPost2010Prop43
 90
        3
102
RTVSPost2010PropOp43
 70
     1
102
RTVSPost2010Prop44ColorIndex
 90
        5
102
RTVSPost2010Prop44ColorRGB
 90
      255
102
RTVSPost2010PropOp44
 70
     1
102
RTVSPost2010Prop45
280
     0
102
RTVSPost2010PropOp45
 70
     1
102
RTVSPost2010Prop46
 90
       50
102
RTVSPost2010PropOp46
 70
     1
102
RTVSPost2010Prop47
 90
       50
102
RTVSPost2010PropOp47
 70
     1
102
RTVSPost2010Prop48
 90
       50
102
RTVSPost2010PropOp48
 70
     1
102
RTVSPost2010Prop49
280
     0
102
RTVSPost2010PropOp49
 70
     1
102
RTVSPost2010Prop50
 90
       50
102
RTVSPost2010PropOp50
 70
     1
102
RTVSPost2010Prop51ColorIndex
 90
      256
102
RTVSPost2010Prop51ColorRGB
 90
-16777216
102
RTVSPost2010PropOp51
 70
     0
102
RTVSPost2010Prop52
140
1.0
102
RTVSPost2010PropOp52
 70
     0
102
RTVSPost2010Prop53
 90
        2
102
RTVSPost2010PropOp53
 70
     1
102
RTVSPost2010Prop54
  1
strokes_ogs.tif
102
RTVSPost2010PropOp54
 70
     1
102
RTVSPost2010Prop55
280
     0
102
RTVSPost2010PropOp55
 70
     1
102
RTVSPost2010Prop56
140
1.0
102
RTVSPost2010PropOp56
 70
     1
102
RTVSPost2010Prop57
140
1.0
102
RTVSPost2010PropOp57
 70
     1
102
RTVSPropertyOp0
 70
     1
102
RTVSPropertyOp1
 70
     1
102
RTVSPropertyOp2
 70
     1
102
RTVSPropertyOp3
 70
     1
102
RTVSPropertyOp4
 70
     1
102
RTVSPropertyOp5
 70
     1
102
RTVSPropertyOp6
 70
     1
102
RTVSPropertyOp7
 70
     1
102
RTVSPropertyOp8
 70
     1
102
RTVSPropertyOp9
 70
     1
102
RTVSPropertyOp10
 70
     1
102
RTVSPropertyOp11
 70
     1
102
RTVSPropertyOp12
 70
     1
102
RTVSPropertyOp13
 70
     1
102
RTVSPropertyOp14
 70
     1
102
RTVSPropertyOp15
 70
     1
102
RTVSPropertyOp16
 70
     1
102
RTVSPropertyOp17
 70
     1
102
RTVSPropertyOp18
 70
     1
102
RTVSPropertyOp19
 70
     1
102
RTVSPropertyOp20
 70
     1
102
RTVSPropertyOp21
 70
     1
102
RTVSPropertyOp22
 70
     1
102
RTVSPropertyOp23
 70
     1
102
RTVSPropertyOp24
 70
     1
102
RTVSPropertyOp25
 70
     1
102
RTVSPropertyOp26
 70
     1
102
RTVSPropertyOp27
 70
     1
102
RTVSPropertyOp28
 70
     1
102
RTVSPropertyOp29
 70
     1
102
RTVSPropertyOp30
 70
     1
102
RTVSPropertyOp31
 70
     1
102
RTVSPropertyOp32
 70
     1
102
RTVSPropertyOp33
 70
     1
102
RTVSPropertyOp34
 70
     1
102
RTVSPropertyOp35
 70
     1
102
RTVSPropertyOp36
 70
     1
102
RTVSPropertyOp37
 70
     1
102
RTVSPropertyOp38
 70
     1
102
RTVSPropertyOp39
 70
     1
102
RTVSPropertyOp40
 70
     1
102
RTVSPropertyOp41
 70
     1
102
RTVSPropertyOp42
 70
     1
102
RTVSPropertyOp43
 70
     1
102
RTVSPropertyOp44
 70
     1
102
RTVSPropertyOp45
 70
     1
102
RTVSPropertyOp46
 70
     1
102
RTVSPropertyOp47
 70
     1
102
RTVSPropertyOp48
 70
     1
102
RTVSPropertyOp49
 70
     1
102
RTVSPropertyOp50
 70
     1
102
RTVSPropertyOp51
 70
     0
102
RTVSPropertyOp52
 70
     0
102
RTVSPropertyOp53
 70
     1
102
RTVSPropertyOp54
 70
     1
102
RTVSPropertyOp55
 70
     1
102
RTVSPropertyOp56
 70
     1
102
RTVSPropertyOp57
 70
     1
102
RTVSPropertyOp58
 70
     1
102
RTVSPropertyOp59
 70
     1
102
RTVSPropertyOp60
 70
     1
102
RTVSPropertyOp61
 70
     1
102
RTVSPropertyOp62
 70
     1
  0
XRECORD
  5
52A
102
{ACAD_REACTORS
330
529
102
}
330
529
100
AcDbXrecord
280
     1
102
RTVSPost2010Prop28
280
     0
102
RTVSPost2010PropOp28
 70
     1
102
RTVSPost2010Prop29
280
     1
102
RTVSPost2010PropOp29
 70
     1
102
RTVSPost2010Prop30
280
     1
102
RTVSPost2010PropOp30
 70
     1
102
RTVSPost2010Prop31
280
     0
102
RTVSPost2010PropOp31
 70
     1
102
RTVSPost2010Prop32
280
     0
102
RTVSPost2010PropOp32
 70
     1
102
RTVSPost2010Prop33
280
     0
102
RTVSPost2010PropOp33
 70
     1
102
RTVSPost2010Prop34
280
     0
102
RTVSPost2010PropOp34
 70
     1
102
RTVSPost2010Prop35
280
     0
102
RTVSPost2010PropOp35
 70
     1
102
RTVSPost2010Prop36
280
     0
102
RTVSPost2010PropOp36
 70
     1
102
RTVSPost2010Prop37
 90
       50
102
RTVSPost2010PropOp37
 70
     1
102
RTVSPost2010Prop38
140
0.0
102
RTVSPost2010PropOp38
 70
     1
102
RTVSPost2010Prop39
140
1.0
102
RTVSPost2010PropOp39
 70
     1
102
RTVSPost2010Prop40
 90
        0
102
RTVSPost2010PropOp40
 70
     1
102
RTVSPost2010Prop41ColorIndex
 90
       18
102
RTVSPost2010Prop41ColorRGB
 90
        0
102
RTVSPost2010PropOp41
 70
     1
102
RTVSPost2010Prop42
 90
       50
102
RTVSPost2010PropOp42
 70
     1
102
RTVSPost2010Prop43
 90
        3
102
RTVSPost2010PropOp43
 70
     1
102
RTVSPost2010Prop44ColorIndex
 90
        5
102
RTVSPost2010Prop44ColorRGB
 90
      255
102
RTVSPost2010PropOp44
 70
     1
102
RTVSPost2010Prop45
280
     0
102
RTVSPost2010PropOp45
 70
     1
102
RTVSPost2010Prop46
 90
       50
102
RTVSPost2010PropOp46
 70
     1
102
RTVSPost2010Prop47
 90
       50
102
RTVSPost2010PropOp47
 70
     1
102
RTVSPost2010Prop48
 90
       50
102
RTVSPost2010PropOp48
 70
     1
102
RTVSPost2010Prop49
280
     0
102
RTVSPost2010PropOp49
 70
     1
102
RTVSPost2010Prop50
 90
       50
102
RTVSPost2010PropOp50
 70
     1
102
RTVSPost2010Prop51ColorIndex
 90
      256
102
RTVSPost2010Prop51ColorRGB
 90
-16777216
102
RTVSPost2010PropOp51
 70
     0
102
RTVSPost2010Prop52
140
1.0
102
RTVSPost2010PropOp52
 70
     0
102
RTVSPost2010Prop53
 90
        2
102
RTVSPost2010PropOp53
 70
     1
102
RTVSPost2010Prop54
  1
strokes_ogs.tif
102
RTVSPost2010PropOp54
 70
     1
102
RTVSPost2010Prop55
280
     0
102
RTVSPost2010PropOp55
 70
     1
102
RTVSPost2010Prop56
140
1.0
102
RTVSPost2010PropOp56
 70
     1
102
RTVSPost2010Prop57
140
1.0
102
RTVSPost2010PropOp57
 70
     1
102
RTVSPropertyOp0
 70
     1
102
RTVSPropertyOp1
 70
     1
102
RTVSPropertyOp2
 70
     1
102
RTVSPropertyOp3
 70
     1
102
RTVSPropertyOp4
 70
     1
102
RTVSPropertyOp5
 70
     1
102
RTVSPropertyOp6
 70
     1
102
RTVSPropertyOp7
 70
     1
102
RTVSPropertyOp8
 70
     1
102
RTVSPropertyOp9
 70
     1
102
RTVSPropertyOp10
 70
     1
102
RTVSPropertyOp11
 70
     1
102
RTVSPropertyOp12
 70
     1
102
RTVSPropertyOp13
 70
     1
102
RTVSPropertyOp14
 70
     1
102
RTVSPropertyOp15
 70
     1
102
RTVSPropertyOp16
 70
     1
102
RTVSPropertyOp17
 70
     1
102
RTVSPropertyOp18
 70
     1
102
RTVSPropertyOp19
 70
     1
102
RTVSPropertyOp20
 70
     1
102
RTVSPropertyOp21
 70
     1
102
RTVSPropertyOp22
 70
     1
102
RTVSPropertyOp23
 70
     1
102
RTVSPropertyOp24
 70
     1
102
RTVSPropertyOp25
 70
     1
102
RTVSPropertyOp26
 70
     1
102
RTVSPropertyOp27
 70
     1
102
RTVSPropertyOp28
 70
     1
102
RTVSPropertyOp29
 70
     1
102
RTVSPropertyOp30
 70
     1
102
RTVSPropertyOp31
 70
     1
102
RTVSPropertyOp32
 70
     1
102
RTVSPropertyOp33
 70
     1
102
RTVSPropertyOp34
 70
     1
102
RTVSPropertyOp35
 70
     1
102
RTVSPropertyOp36
 70
     1
102
RTVSPropertyOp37
 70
     1
102
RTVSPropertyOp38
 70
     1
102
RTVSPropertyOp39
 70
     1
102
RTVSPropertyOp40
 70
     1
102
RTVSPropertyOp41
 70
     1
102
RTVSPropertyOp42
 70
     1
102
RTVSPropertyOp43
 70
     1
102
RTVSPropertyOp44
 70
     1
102
RTVSPropertyOp45
 70
     1
102
RTVSPropertyOp46
 70
     1
102
RTVSPropertyOp47
 70
     1
102
RTVSPropertyOp48
 70
     1
102
RTVSPropertyOp49
 70
     1
102
RTVSPropertyOp50
 70
     1
102
RTVSPropertyOp51
 70
     0
102
RTVSPropertyOp52
 70
     0
102
RTVSPropertyOp53
 70
     1
102
RTVSPropertyOp54
 70
     1
102
RTVSPropertyOp55
 70
     1
102
RTVSPropertyOp56
 70
     1
102
RTVSPropertyOp57
 70
     1
102
RTVSPropertyOp58
 70
     1
102
RTVSPropertyOp59
 70
     1
102
RTVSPropertyOp60
 70
     1
102
RTVSPropertyOp61
 70
     1
102
RTVSPropertyOp62
 70
     1
  0
XRECORD
  5
524
102
{ACAD_REACTORS
330
523
102
}
330
523
100
AcDbXrecord
280
     1
102
RTVSPost2010Prop28
280
     0
102
RTVSPost2010PropOp28
 70
     1
102
RTVSPost2010Prop29
280
     1
102
RTVSPost2010PropOp29
 70
     1
102
RTVSPost2010Prop30
280
     1
102
RTVSPost2010PropOp30
 70
     1
102
RTVSPost2010Prop31
280
     0
102
RTVSPost2010PropOp31
 70
     1
102
RTVSPost2010Prop32
280
     0
102
RTVSPost2010PropOp32
 70
     1
102
RTVSPost2010Prop33
280
     0
102
RTVSPost2010PropOp33
 70
     1
102
RTVSPost2010Prop34
280
     0
102
RTVSPost2010PropOp34
 70
     1
102
RTVSPost2010Prop35
280
     0
102
RTVSPost2010PropOp35
 70
     1
102
RTVSPost2010Prop36
280
     0
102
RTVSPost2010PropOp36
 70
     1
102
RTVSPost2010Prop37
 90
       50
102
RTVSPost2010PropOp37
 70
     1
102
RTVSPost2010Prop38
140
0.0
102
RTVSPost2010PropOp38
 70
     1
102
RTVSPost2010Prop39
140
1.0
102
RTVSPost2010PropOp39
 70
     1
102
RTVSPost2010Prop40
 90
        0
102
RTVSPost2010PropOp40
 70
     1
102
RTVSPost2010Prop41ColorIndex
 90
       18
102
RTVSPost2010Prop41ColorRGB
 90
        0
102
RTVSPost2010PropOp41
 70
     1
102
RTVSPost2010Prop42
 90
       50
102
RTVSPost2010PropOp42
 70
     1
102
RTVSPost2010Prop43
 90
        3
102
RTVSPost2010PropOp43
 70
     1
102
RTVSPost2010Prop44ColorIndex
 90
        5
102
RTVSPost2010Prop44ColorRGB
 90
      255
102
RTVSPost2010PropOp44
 70
     1
102
RTVSPost2010Prop45
280
     0
102
RTVSPost2010PropOp45
 70
     1
102
RTVSPost2010Prop46
 90
       50
102
RTVSPost2010PropOp46
 70
     1
102
RTVSPost2010Prop47
 90
       50
102
RTVSPost2010PropOp47
 70
     1
102
RTVSPost2010Prop48
 90
       50
102
RTVSPost2010PropOp48
 70
     1
102
RTVSPost2010Prop49
280
     0
102
RTVSPost2010PropOp49
 70
     1
102
RTVSPost2010Prop50
 90
       50
102
RTVSPost2010PropOp50
 70
     1
102
RTVSPost2010Prop51ColorIndex
 90
      256
102
RTVSPost2010Prop51ColorRGB
 90
-16777216
102
RTVSPost2010PropOp51
 70
     0
102
RTVSPost2010Prop52
140
1.0
102
RTVSPost2010PropOp52
 70
     0
102
RTVSPost2010Prop53
 90
        2
102
RTVSPost2010PropOp53
 70
     1
102
RTVSPost2010Prop54
  1
strokes_ogs.tif
102
RTVSPost2010PropOp54
 70
     1
102
RTVSPost2010Prop55
280
     0
102
RTVSPost2010PropOp55
 70
     1
102
RTVSPost2010Prop56
140
1.0
102
RTVSPost2010PropOp56
 70
     1
102
RTVSPost2010Prop57
140
1.0
102
RTVSPost2010PropOp57
 70
     1
102
RTVSPropertyOp0
 70
     1
102
RTVSPropertyOp1
 70
     1
102
RTVSPropertyOp2
 70
     1
102
RTVSPropertyOp3
 70
     1
102
RTVSPropertyOp4
 70
     1
102
RTVSPropertyOp5
 70
     1
102
RTVSPropertyOp6
 70
     1
102
RTVSPropertyOp7
 70
     1
102
RTVSPropertyOp8
 70
     1
102
RTVSPropertyOp9
 70
     1
102
RTVSPropertyOp10
 70
     1
102
RTVSPropertyOp11
 70
     1
102
RTVSPropertyOp12
 70
     1
102
RTVSPropertyOp13
 70
     1
102
RTVSPropertyOp14
 70
     1
102
RTVSPropertyOp15
 70
     1
102
RTVSPropertyOp16
 70
     1
102
RTVSPropertyOp17
 70
     1
102
RTVSPropertyOp18
 70
     1
102
RTVSPropertyOp19
 70
     1
102
RTVSPropertyOp20
 70
     1
102
RTVSPropertyOp21
 70
     1
102
RTVSPropertyOp22
 70
     1
102
RTVSPropertyOp23
 70
     1
102
RTVSPropertyOp24
 70
     1
102
RTVSPropertyOp25
 70
     1
102
RTVSPropertyOp26
 70
     1
102
RTVSPropertyOp27
 70
     1
102
RTVSPropertyOp28
 70
     1
102
RTVSPropertyOp29
 70
     1
102
RTVSPropertyOp30
 70
     1
102
RTVSPropertyOp31
 70
     1
102
RTVSPropertyOp32
 70
     1
102
RTVSPropertyOp33
 70
     1
102
RTVSPropertyOp34
 70
     1
102
RTVSPropertyOp35
 70
     1
102
RTVSPropertyOp36
 70
     1
102
RTVSPropertyOp37
 70
     1
102
RTVSPropertyOp38
 70
     1
102
RTVSPropertyOp39
 70
     1
102
RTVSPropertyOp40
 70
     1
102
RTVSPropertyOp41
 70
     1
102
RTVSPropertyOp42
 70
     1
102
RTVSPropertyOp43
 70
     1
102
RTVSPropertyOp44
 70
     1
102
RTVSPropertyOp45
 70
     1
102
RTVSPropertyOp46
 70
     1
102
RTVSPropertyOp47
 70
     1
102
RTVSPropertyOp48
 70
     1
102
RTVSPropertyOp49
 70
     1
102
RTVSPropertyOp50
 70
     1
102
RTVSPropertyOp51
 70
     0
102
RTVSPropertyOp52
 70
     0
102
RTVSPropertyOp53
 70
     1
102
RTVSPropertyOp54
 70
     1
102
RTVSPropertyOp55
 70
     1
102
RTVSPropertyOp56
 70
     1
102
RTVSPropertyOp57
 70
     1
102
RTVSPropertyOp58
 70
     1
102
RTVSPropertyOp59
 70
     1
102
RTVSPropertyOp60
 70
     1
102
RTVSPropertyOp61
 70
     1
102
RTVSPropertyOp62
 70
     1
  0
XRECORD
  5
526
102
{ACAD_REACTORS
330
525
102
}
330
525
100
AcDbXrecord
280
     1
102
RTVSPost2010Prop28
280
     0
102
RTVSPost2010PropOp28
 70
     1
102
RTVSPost2010Prop29
280
     1
102
RTVSPost2010PropOp29
 70
     1
102
RTVSPost2010Prop30
280
     1
102
RTVSPost2010PropOp30
 70
     1
102
RTVSPost2010Prop31
280
     0
102
RTVSPost2010PropOp31
 70
     1
102
RTVSPost2010Prop32
280
     0
102
RTVSPost2010PropOp32
 70
     1
102
RTVSPost2010Prop33
280
     0
102
RTVSPost2010PropOp33
 70
     1
102
RTVSPost2010Prop34
280
     0
102
RTVSPost2010PropOp34
 70
     1
102
RTVSPost2010Prop35
280
     0
102
RTVSPost2010PropOp35
 70
     1
102
RTVSPost2010Prop36
280
     0
102
RTVSPost2010PropOp36
 70
     1
102
RTVSPost2010Prop37
 90
       50
102
RTVSPost2010PropOp37
 70
     1
102
RTVSPost2010Prop38
140
0.0
102
RTVSPost2010PropOp38
 70
     1
102
RTVSPost2010Prop39
140
1.0
102
RTVSPost2010PropOp39
 70
     1
102
RTVSPost2010Prop40
 90
        0
102
RTVSPost2010PropOp40
 70
     1
102
RTVSPost2010Prop41ColorIndex
 90
       18
102
RTVSPost2010Prop41ColorRGB
 90
        0
102
RTVSPost2010PropOp41
 70
     1
102
RTVSPost2010Prop42
 90
       50
102
RTVSPost2010PropOp42
 70
     1
102
RTVSPost2010Prop43
 90
        3
102
RTVSPost2010PropOp43
 70
     1
102
RTVSPost2010Prop44ColorIndex
 90
        5
102
RTVSPost2010Prop44ColorRGB
 90
      255
102
RTVSPost2010PropOp44
 70
     1
102
RTVSPost2010Prop45
280
     0
102
RTVSPost2010PropOp45
 70
     1
102
RTVSPost2010Prop46
 90
       50
102
RTVSPost2010PropOp46
 70
     1
102
RTVSPost2010Prop47
 90
       50
102
RTVSPost2010PropOp47
 70
     1
102
RTVSPost2010Prop48
 90
       50
102
RTVSPost2010PropOp48
 70
     1
102
RTVSPost2010Prop49
280
     0
102
RTVSPost2010PropOp49
 70
     1
102
RTVSPost2010Prop50
 90
       50
102
RTVSPost2010PropOp50
 70
     1
102
RTVSPost2010Prop51ColorIndex
 90
      256
102
RTVSPost2010Prop51ColorRGB
 90
-16777216
102
RTVSPost2010PropOp51
 70
     0
102
RTVSPost2010Prop52
140
1.0
102
RTVSPost2010PropOp52
 70
     0
102
RTVSPost2010Prop53
 90
        2
102
RTVSPost2010PropOp53
 70
     1
102
RTVSPost2010Prop54
  1
strokes_ogs.tif
102
RTVSPost2010PropOp54
 70
     1
102
RTVSPost2010Prop55
280
     0
102
RTVSPost2010PropOp55
 70
     1
102
RTVSPost2010Prop56
140
1.0
102
RTVSPost2010PropOp56
 70
     1
102
RTVSPost2010Prop57
140
1.0
102
RTVSPost2010PropOp57
 70
     1
102
RTVSPropertyOp0
 70
     1
102
RTVSPropertyOp1
 70
     1
102
RTVSPropertyOp2
 70
     1
102
RTVSPropertyOp3
 70
     1
102
RTVSPropertyOp4
 70
     1
102
RTVSPropertyOp5
 70
     1
102
RTVSPropertyOp6
 70
     1
102
RTVSPropertyOp7
 70
     1
102
RTVSPropertyOp8
 70
     1
102
RTVSPropertyOp9
 70
     1
102
RTVSPropertyOp10
 70
     1
102
RTVSPropertyOp11
 70
     1
102
RTVSPropertyOp12
 70
     1
102
RTVSPropertyOp13
 70
     1
102
RTVSPropertyOp14
 70
     1
102
RTVSPropertyOp15
 70
     1
102
RTVSPropertyOp16
 70
     1
102
RTVSPropertyOp17
 70
     1
102
RTVSPropertyOp18
 70
     1
102
RTVSPropertyOp19
 70
     1
102
RTVSPropertyOp20
 70
     1
102
RTVSPropertyOp21
 70
     1
102
RTVSPropertyOp22
 70
     1
102
RTVSPropertyOp23
 70
     1
102
RTVSPropertyOp24
 70
     1
102
RTVSPropertyOp25
 70
     1
102
RTVSPropertyOp26
 70
     1
102
RTVSPropertyOp27
 70
     1
102
RTVSPropertyOp28
 70
     1
102
RTVSPropertyOp29
 70
     1
102
RTVSPropertyOp30
 70
     1
102
RTVSPropertyOp31
 70
     1
102
RTVSPropertyOp32
 70
     1
102
RTVSPropertyOp33
 70
     1
102
RTVSPropertyOp34
 70
     1
102
RTVSPropertyOp35
 70
     1
102
RTVSPropertyOp36
 70
     1
102
RTVSPropertyOp37
 70
     1
102
RTVSPropertyOp38
 70
     1
102
RTVSPropertyOp39
 70
     1
102
RTVSPropertyOp40
 70
     1
102
RTVSPropertyOp41
 70
     1
102
RTVSPropertyOp42
 70
     1
102
RTVSPropertyOp43
 70
     1
102
RTVSPropertyOp44
 70
     1
102
RTVSPropertyOp45
 70
     1
102
RTVSPropertyOp46
 70
     1
102
RTVSPropertyOp47
 70
     1
102
RTVSPropertyOp48
 70
     1
102
RTVSPropertyOp49
 70
     1
102
RTVSPropertyOp50
 70
     1
102
RTVSPropertyOp51
 70
     0
102
RTVSPropertyOp52
 70
     0
102
RTVSPropertyOp53
 70
     1
102
RTVSPropertyOp54
 70
     1
102
RTVSPropertyOp55
 70
     1
102
RTVSPropertyOp56
 70
     1
102
RTVSPropertyOp57
 70
     1
102
RTVSPropertyOp58
 70
     1
102
RTVSPropertyOp59
 70
     1
102
RTVSPropertyOp60
 70
     1
102
RTVSPropertyOp61
 70
     1
102
RTVSPropertyOp62
 70
     1
  0
XRECORD
  5
516
102
{ACAD_REACTORS
330
515
102
}
330
515
100
AcDbXrecord
280
     1
102
RTVSPost2010Prop28
280
     0
102
RTVSPost2010PropOp28
 70
     1
102
RTVSPost2010Prop29
280
     1
102
RTVSPost2010PropOp29
 70
     1
102
RTVSPost2010Prop30
280
     1
102
RTVSPost2010PropOp30
 70
     1
102
RTVSPost2010Prop31
280
     0
102
RTVSPost2010PropOp31
 70
     1
102
RTVSPost2010Prop32
280
     0
102
RTVSPost2010PropOp32
 70
     1
102
RTVSPost2010Prop33
280
     0
102
RTVSPost2010PropOp33
 70
     1
102
RTVSPost2010Prop34
280
     0
102
RTVSPost2010PropOp34
 70
     1
102
RTVSPost2010Prop35
280
     0
102
RTVSPost2010PropOp35
 70
     1
102
RTVSPost2010Prop36
280
     0
102
RTVSPost2010PropOp36
 70
     1
102
RTVSPost2010Prop37
 90
       50
102
RTVSPost2010PropOp37
 70
     1
102
RTVSPost2010Prop38
140
0.0
102
RTVSPost2010PropOp38
 70
     1
102
RTVSPost2010Prop39
140
1.0
102
RTVSPost2010PropOp39
 70
     1
102
RTVSPost2010Prop40
 90
        0
102
RTVSPost2010PropOp40
 70
     1
102
RTVSPost2010Prop41ColorIndex
 90
       18
102
RTVSPost2010Prop41ColorRGB
 90
        0
102
RTVSPost2010PropOp41
 70
     1
102
RTVSPost2010Prop42
 90
       50
102
RTVSPost2010PropOp42
 70
     1
102
RTVSPost2010Prop43
 90
        3
102
RTVSPost2010PropOp43
 70
     1
102
RTVSPost2010Prop44ColorIndex
 90
        5
102
RTVSPost2010Prop44ColorRGB
 90
      255
102
RTVSPost2010PropOp44
 70
     1
102
RTVSPost2010Prop45
280
     0
102
RTVSPost2010PropOp45
 70
     1
102
RTVSPost2010Prop46
 90
       50
102
RTVSPost2010PropOp46
 70
     1
102
RTVSPost2010Prop47
 90
       50
102
RTVSPost2010PropOp47
 70
     1
102
RTVSPost2010Prop48
 90
       50
102
RTVSPost2010PropOp48
 70
     1
102
RTVSPost2010Prop49
280
     0
102
RTVSPost2010PropOp49
 70
     1
102
RTVSPost2010Prop50
 90
       50
102
RTVSPost2010PropOp50
 70
     1
102
RTVSPost2010Prop51ColorIndex
 90
      256
102
RTVSPost2010Prop51ColorRGB
 90
-16777216
102
RTVSPost2010PropOp51
 70
     0
102
RTVSPost2010Prop52
140
1.0
102
RTVSPost2010PropOp52
 70
     0
102
RTVSPost2010Prop53
 90
        2
102
RTVSPost2010PropOp53
 70
     1
102
RTVSPost2010Prop54
  1
strokes_ogs.tif
102
RTVSPost2010PropOp54
 70
     1
102
RTVSPost2010Prop55
280
     0
102
RTVSPost2010PropOp55
 70
     1
102
RTVSPost2010Prop56
140
1.0
102
RTVSPost2010PropOp56
 70
     1
102
RTVSPost2010Prop57
140
1.0
102
RTVSPost2010PropOp57
 70
     1
102
RTVSPropertyOp0
 70
     1
102
RTVSPropertyOp1
 70
     1
102
RTVSPropertyOp2
 70
     1
102
RTVSPropertyOp3
 70
     1
102
RTVSPropertyOp4
 70
     1
102
RTVSPropertyOp5
 70
     1
102
RTVSPropertyOp6
 70
     1
102
RTVSPropertyOp7
 70
     1
102
RTVSPropertyOp8
 70
     1
102
RTVSPropertyOp9
 70
     1
102
RTVSPropertyOp10
 70
     1
102
RTVSPropertyOp11
 70
     1
102
RTVSPropertyOp12
 70
     1
102
RTVSPropertyOp13
 70
     1
102
RTVSPropertyOp14
 70
     1
102
RTVSPropertyOp15
 70
     1
102
RTVSPropertyOp16
 70
     1
102
RTVSPropertyOp17
 70
     1
102
RTVSPropertyOp18
 70
     1
102
RTVSPropertyOp19
 70
     1
102
RTVSPropertyOp20
 70
     1
102
RTVSPropertyOp21
 70
     1
102
RTVSPropertyOp22
 70
     1
102
RTVSPropertyOp23
 70
     1
102
RTVSPropertyOp24
 70
     1
102
RTVSPropertyOp25
 70
     1
102
RTVSPropertyOp26
 70
     1
102
RTVSPropertyOp27
 70
     1
102
RTVSPropertyOp28
 70
     1
102
RTVSPropertyOp29
 70
     1
102
RTVSPropertyOp30
 70
     1
102
RTVSPropertyOp31
 70
     1
102
RTVSPropertyOp32
 70
     1
102
RTVSPropertyOp33
 70
     1
102
RTVSPropertyOp34
 70
     1
102
RTVSPropertyOp35
 70
     1
102
RTVSPropertyOp36
 70
     1
102
RTVSPropertyOp37
 70
     1
102
RTVSPropertyOp38
 70
     1
102
RTVSPropertyOp39
 70
     1
102
RTVSPropertyOp40
 70
     1
102
RTVSPropertyOp41
 70
     1
102
RTVSPropertyOp42
 70
     1
102
RTVSPropertyOp43
 70
     1
102
RTVSPropertyOp44
 70
     1
102
RTVSPropertyOp45
 70
     1
102
RTVSPropertyOp46
 70
     1
102
RTVSPropertyOp47
 70
     1
102
RTVSPropertyOp48
 70
     1
102
RTVSPropertyOp49
 70
     1
102
RTVSPropertyOp50
 70
     1
102
RTVSPropertyOp51
 70
     0
102
RTVSPropertyOp52
 70
     0
102
RTVSPropertyOp53
 70
     1
102
RTVSPropertyOp54
 70
     1
102
RTVSPropertyOp55
 70
     1
102
RTVSPropertyOp56
 70
     1
102
RTVSPropertyOp57
 70
     1
102
RTVSPropertyOp58
 70
     1
102
RTVSPropertyOp59
 70
     1
102
RTVSPropertyOp60
 70
     1
102
RTVSPropertyOp61
 70
     1
102
RTVSPropertyOp62
 70
     1
  0
XRECORD
  5
508
102
{ACAD_REACTORS
330
507
102
}
330
507
100
AcDbXrecord
280
     1
102
RTVSPost2010Prop28
280
     0
102
RTVSPost2010PropOp28
 70
     1
102
RTVSPost2010Prop29
280
     1
102
RTVSPost2010PropOp29
 70
     1
102
RTVSPost2010Prop30
280
     1
102
RTVSPost2010PropOp30
 70
     1
102
RTVSPost2010Prop31
280
     0
102
RTVSPost2010PropOp31
 70
     1
102
RTVSPost2010Prop32
280
     0
102
RTVSPost2010PropOp32
 70
     1
102
RTVSPost2010Prop33
280
     0
102
RTVSPost2010PropOp33
 70
     1
102
RTVSPost2010Prop34
280
     0
102
RTVSPost2010PropOp34
 70
     1
102
RTVSPost2010Prop35
280
     0
102
RTVSPost2010PropOp35
 70
     1
102
RTVSPost2010Prop36
280
     0
102
RTVSPost2010PropOp36
 70
     1
102
RTVSPost2010Prop37
 90
       50
102
RTVSPost2010PropOp37
 70
     1
102
RTVSPost2010Prop38
140
0.0
102
RTVSPost2010PropOp38
 70
     1
102
RTVSPost2010Prop39
140
1.0
102
RTVSPost2010PropOp39
 70
     1
102
RTVSPost2010Prop40
 90
        0
102
RTVSPost2010PropOp40
 70
     1
102
RTVSPost2010Prop41ColorIndex
 90
       18
102
RTVSPost2010Prop41ColorRGB
 90
        0
102
RTVSPost2010PropOp41
 70
     1
102
RTVSPost2010Prop42
 90
       50
102
RTVSPost2010PropOp42
 70
     1
102
RTVSPost2010Prop43
 90
        3
102
RTVSPost2010PropOp43
 70
     1
102
RTVSPost2010Prop44ColorIndex
 90
        5
102
RTVSPost2010Prop44ColorRGB
 90
      255
102
RTVSPost2010PropOp44
 70
     1
102
RTVSPost2010Prop45
280
     0
102
RTVSPost2010PropOp45
 70
     1
102
RTVSPost2010Prop46
 90
       50
102
RTVSPost2010PropOp46
 70
     1
102
RTVSPost2010Prop47
 90
       50
102
RTVSPost2010PropOp47
 70
     1
102
RTVSPost2010Prop48
 90
       50
102
RTVSPost2010PropOp48
 70
     1
102
RTVSPost2010Prop49
280
     0
102
RTVSPost2010PropOp49
 70
     1
102
RTVSPost2010Prop50
 90
       50
102
RTVSPost2010PropOp50
 70
     1
102
RTVSPost2010Prop51ColorIndex
 90
      256
102
RTVSPost2010Prop51ColorRGB
 90
-16777216
102
RTVSPost2010PropOp51
 70
     0
102
RTVSPost2010Prop52
140
1.0
102
RTVSPost2010PropOp52
 70
     0
102
RTVSPost2010Prop53
 90
        2
102
RTVSPost2010PropOp53
 70
     1
102
RTVSPost2010Prop54
  1
strokes_ogs.tif
102
RTVSPost2010PropOp54
 70
     1
102
RTVSPost2010Prop55
280
     0
102
RTVSPost2010PropOp55
 70
     1
102
RTVSPost2010Prop56
140
1.0
102
RTVSPost2010PropOp56
 70
     1
102
RTVSPost2010Prop57
140
1.0
102
RTVSPost2010PropOp57
 70
     1
102
RTVSPropertyOp0
 70
     1
102
RTVSPropertyOp1
 70
     1
102
RTVSPropertyOp2
 70
     1
102
RTVSPropertyOp3
 70
     1
102
RTVSPropertyOp4
 70
     1
102
RTVSPropertyOp5
 70
     1
102
RTVSPropertyOp6
 70
     1
102
RTVSPropertyOp7
 70
     1
102
RTVSPropertyOp8
 70
     1
102
RTVSPropertyOp9
 70
     1
102
RTVSPropertyOp10
 70
     1
102
RTVSPropertyOp11
 70
     1
102
RTVSPropertyOp12
 70
     1
102
RTVSPropertyOp13
 70
     1
102
RTVSPropertyOp14
 70
     1
102
RTVSPropertyOp15
 70
     1
102
RTVSPropertyOp16
 70
     1
102
RTVSPropertyOp17
 70
     1
102
RTVSPropertyOp18
 70
     1
102
RTVSPropertyOp19
 70
     1
102
RTVSPropertyOp20
 70
     1
102
RTVSPropertyOp21
 70
     1
102
RTVSPropertyOp22
 70
     1
102
RTVSPropertyOp23
 70
     1
102
RTVSPropertyOp24
 70
     1
102
RTVSPropertyOp25
 70
     1
102
RTVSPropertyOp26
 70
     1
102
RTVSPropertyOp27
 70
     1
102
RTVSPropertyOp28
 70
     1
102
RTVSPropertyOp29
 70
     1
102
RTVSPropertyOp30
 70
     1
102
RTVSPropertyOp31
 70
     1
102
RTVSPropertyOp32
 70
     1
102
RTVSPropertyOp33
 70
     1
102
RTVSPropertyOp34
 70
     1
102
RTVSPropertyOp35
 70
     1
102
RTVSPropertyOp36
 70
     1
102
RTVSPropertyOp37
 70
     1
102
RTVSPropertyOp38
 70
     1
102
RTVSPropertyOp39
 70
     1
102
RTVSPropertyOp40
 70
     1
102
RTVSPropertyOp41
 70
     1
102
RTVSPropertyOp42
 70
     1
102
RTVSPropertyOp43
 70
     1
102
RTVSPropertyOp44
 70
     1
102
RTVSPropertyOp45
 70
     1
102
RTVSPropertyOp46
 70
     1
102
RTVSPropertyOp47
 70
     1
102
RTVSPropertyOp48
 70
     1
102
RTVSPropertyOp49
 70
     1
102
RTVSPropertyOp50
 70
     1
102
RTVSPropertyOp51
 70
     0
102
RTVSPropertyOp52
 70
     0
102
RTVSPropertyOp53
 70
     1
102
RTVSPropertyOp54
 70
     1
102
RTVSPropertyOp55
 70
     1
102
RTVSPropertyOp56
 70
     1
102
RTVSPropertyOp57
 70
     1
102
RTVSPropertyOp58
 70
     1
102
RTVSPropertyOp59
 70
     1
102
RTVSPropertyOp60
 70
     1
102
RTVSPropertyOp61
 70
     1
102
RTVSPropertyOp62
 70
     1
  0
XRECORD
  5
528
102
{ACAD_REACTORS
330
527
102
}
330
527
100
AcDbXrecord
280
     1
102
RTVSPost2010Prop28
280
     0
102
RTVSPost2010PropOp28
 70
     1
102
RTVSPost2010Prop29
280
     1
102
RTVSPost2010PropOp29
 70
     1
102
RTVSPost2010Prop30
280
     1
102
RTVSPost2010PropOp30
 70
     1
102
RTVSPost2010Prop31
280
     0
102
RTVSPost2010PropOp31
 70
     1
102
RTVSPost2010Prop32
280
     0
102
RTVSPost2010PropOp32
 70
     1
102
RTVSPost2010Prop33
280
     0
102
RTVSPost2010PropOp33
 70
     1
102
RTVSPost2010Prop34
280
     0
102
RTVSPost2010PropOp34
 70
     1
102
RTVSPost2010Prop35
280
     0
102
RTVSPost2010PropOp35
 70
     1
102
RTVSPost2010Prop36
280
     0
102
RTVSPost2010PropOp36
 70
     1
102
RTVSPost2010Prop37
 90
       50
102
RTVSPost2010PropOp37
 70
     1
102
RTVSPost2010Prop38
140
0.0
102
RTVSPost2010PropOp38
 70
     1
102
RTVSPost2010Prop39
140
1.0
102
RTVSPost2010PropOp39
 70
     1
102
RTVSPost2010Prop40
 90
        0
102
RTVSPost2010PropOp40
 70
     1
102
RTVSPost2010Prop41ColorIndex
 90
       18
102
RTVSPost2010Prop41ColorRGB
 90
        0
102
RTVSPost2010PropOp41
 70
     1
102
RTVSPost2010Prop42
 90
       50
102
RTVSPost2010PropOp42
 70
     1
102
RTVSPost2010Prop43
 90
        3
102
RTVSPost2010PropOp43
 70
     1
102
RTVSPost2010Prop44ColorIndex
 90
        5
102
RTVSPost2010Prop44ColorRGB
 90
      255
102
RTVSPost2010PropOp44
 70
     1
102
RTVSPost2010Prop45
280
     0
102
RTVSPost2010PropOp45
 70
     1
102
RTVSPost2010Prop46
 90
       50
102
RTVSPost2010PropOp46
 70
     1
102
RTVSPost2010Prop47
 90
       50
102
RTVSPost2010PropOp47
 70
     1
102
RTVSPost2010Prop48
 90
       50
102
RTVSPost2010PropOp48
 70
     1
102
RTVSPost2010Prop49
280
     0
102
RTVSPost2010PropOp49
 70
     1
102
RTVSPost2010Prop50
 90
       50
102
RTVSPost2010PropOp50
 70
     1
102
RTVSPost2010Prop51ColorIndex
 90
      256
102
RTVSPost2010Prop51ColorRGB
 90
-16777216
102
RTVSPost2010PropOp51
 70
     0
102
RTVSPost2010Prop52
140
1.0
102
RTVSPost2010PropOp52
 70
     0
102
RTVSPost2010Prop53
 90
        2
102
RTVSPost2010PropOp53
 70
     1
102
RTVSPost2010Prop54
  1
strokes_ogs.tif
102
RTVSPost2010PropOp54
 70
     1
102
RTVSPost2010Prop55
280
     0
102
RTVSPost2010PropOp55
 70
     1
102
RTVSPost2010Prop56
140
1.0
102
RTVSPost2010PropOp56
 70
     1
102
RTVSPost2010Prop57
140
1.0
102
RTVSPost2010PropOp57
 70
     1
102
RTVSPropertyOp0
 70
     1
102
RTVSPropertyOp1
 70
     1
102
RTVSPropertyOp2
 70
     1
102
RTVSPropertyOp3
 70
     1
102
RTVSPropertyOp4
 70
     1
102
RTVSPropertyOp5
 70
     1
102
RTVSPropertyOp6
 70
     1
102
RTVSPropertyOp7
 70
     1
102
RTVSPropertyOp8
 70
     1
102
RTVSPropertyOp9
 70
     1
102
RTVSPropertyOp10
 70
     1
102
RTVSPropertyOp11
 70
     1
102
RTVSPropertyOp12
 70
     1
102
RTVSPropertyOp13
 70
     1
102
RTVSPropertyOp14
 70
     1
102
RTVSPropertyOp15
 70
     1
102
RTVSPropertyOp16
 70
     1
102
RTVSPropertyOp17
 70
     1
102
RTVSPropertyOp18
 70
     1
102
RTVSPropertyOp19
 70
     1
102
RTVSPropertyOp20
 70
     1
102
RTVSPropertyOp21
 70
     1
102
RTVSPropertyOp22
 70
     1
102
RTVSPropertyOp23
 70
     1
102
RTVSPropertyOp24
 70
     1
102
RTVSPropertyOp25
 70
     1
102
RTVSPropertyOp26
 70
     1
102
RTVSPropertyOp27
 70
     1
102
RTVSPropertyOp28
 70
     1
102
RTVSPropertyOp29
 70
     1
102
RTVSPropertyOp30
 70
     1
102
RTVSPropertyOp31
 70
     1
102
RTVSPropertyOp32
 70
     1
102
RTVSPropertyOp33
 70
     1
102
RTVSPropertyOp34
 70
     1
102
RTVSPropertyOp35
 70
     1
102
RTVSPropertyOp36
 70
     1
102
RTVSPropertyOp37
 70
     1
102
RTVSPropertyOp38
 70
     1
102
RTVSPropertyOp39
 70
     1
102
RTVSPropertyOp40
 70
     1
102
RTVSPropertyOp41
 70
     1
102
RTVSPropertyOp42
 70
     1
102
RTVSPropertyOp43
 70
     1
102
RTVSPropertyOp44
 70
     1
102
RTVSPropertyOp45
 70
     1
102
RTVSPropertyOp46
 70
     1
102
RTVSPropertyOp47
 70
     1
102
RTVSPropertyOp48
 70
     1
102
RTVSPropertyOp49
 70
     1
102
RTVSPropertyOp50
 70
     1
102
RTVSPropertyOp51
 70
     0
102
RTVSPropertyOp52
 70
     0
102
RTVSPropertyOp53
 70
     1
102
RTVSPropertyOp54
 70
     1
102
RTVSPropertyOp55
 70
     1
102
RTVSPropertyOp56
 70
     1
102
RTVSPropertyOp57
 70
     1
102
RTVSPropertyOp58
 70
     1
102
RTVSPropertyOp59
 70
     1
102
RTVSPropertyOp60
 70
     1
102
RTVSPropertyOp61
 70
     1
102
RTVSPropertyOp62
 70
     1
  0
ENDSEC
  0
EOF
