  0
SECTION
  2
HEADER
  9
$ACADVER
  1
AC1018
  9
$ACADMAINTVER
 70
     0
  9
$DWGCODEPAGE
  3
ANSI_932
  9
$LASTSAVEDBY
  1
koji
  9
$INSBASE
 10
0.0
 20
0.0
 30
0.0
  9
$EXTMIN
 10
-715.2089172875335
 20
-416.644528219274
 30
0.0
  9
$EXTMAX
 10
3142.026982873865
 20
2219.892865706343
 30
0.0
  9
$LIMMIN
 10
0.0
 20
0.0
  9
$LIMMAX
 10
2500.0
 20
1768.25
  9
$ORTHOMODE
 70
     0
  9
$REGENMODE
 70
     1
  9
$FILLMODE
 70
     1
  9
$QTEXTMODE
 70
     0
  9
$MIRRTEXT
 70
     1
  9
$LTSCALE
 40
0.25
  9
$ATTMODE
 70
     1
  9
$TEXTSIZE
 40
0.2
  9
$TRACEWID
 40
0.05
  9
$TEXTSTYLE
  7
STANDARD
  9
$CLAYER
  8
0
  9
$CELTYPE
  6
CONTINUOUS
  9
$CECOLOR
 62
   256
  9
$CELTSCALE
 40
1.0
  9
$DISPSILH
 70
     0
  9
$DIMSCALE
 40
1.0
  9
$DIMASZ
 40
0.18
  9
$DIMEXO
 40
0.0625
  9
$DIMDLI
 40
0.38
  9
$DIMRND
 40
0.0
  9
$DIMDLE
 40
0.0
  9
$DIMEXE
 40
0.18
  9
$DIMTP
 40
0.0
  9
$DIMTM
 40
0.0
  9
$DIMTXT
 40
0.18
  9
$DIMCEN
 40
0.09
  9
$DIMTSZ
 40
0.0
  9
$DIMTOL
 70
     0
  9
$DIMLIM
 70
     0
  9
$DIMTIH
 70
     1
  9
$DIMTOH
 70
     1
  9
$DIMSE1
 70
     0
  9
$DIMSE2
 70
     0
  9
$DIMTAD
 70
     0
  9
$DIMZIN
 70
     0
  9
$DIMBLK
  1

  9
$DIMASO
 70
     1
  9
$DIMSHO
 70
     1
  9
$DIMPOST
  1

  9
$DIMAPOST
  1

  9
$DIMALT
 70
     0
  9
$DIMALTD
 70
     2
  9
$DIMALTF
 40
25.4
  9
$DIMLFAC
 40
1.0
  9
$DIMTOFL
 70
     0
  9
$DIMTVP
 40
0.0
  9
$DIMTIX
 70
     0
  9
$DIMSOXD
 70
     0
  9
$DIMSAH
 70
     0
  9
$DIMBLK1
  1

  9
$DIMBLK2
  1

  9
$DIMSTYLE
  2
Standard
  9
$DIMCLRD
 70
     0
  9
$DIMCLRE
 70
     0
  9
$DIMCLRT
 70
     0
  9
$DIMTFAC
 40
1.0
  9
$DIMGAP
 40
0.09
  9
$DIMJUST
 70
     0
  9
$DIMSD1
 70
     0
  9
$DIMSD2
 70
     0
  9
$DIMTOLJ
 70
     1
  9
$DIMTZIN
 70
     0
  9
$DIMALTZ
 70
     0
  9
$DIMALTTZ
 70
     0
  9
$DIMUPT
 70
     0
  9
$DIMDEC
 70
     4
  9
$DIMTDEC
 70
     4
  9
$DIMALTU
 70
     2
  9
$DIMALTTD
 70
     2
  9
$DIMTXSTY
  7
STANDARD
  9
$DIMAUNIT
 70
     0
  9
$DIMADEC
 70
     0
  9
$DIMALTRND
 40
0.0
  9
$DIMAZIN
 70
     0
  9
$DIMDSEP
 70
    46
  9
$DIMATFIT
 70
     3
  9
$DIMFRAC
 70
     0
  9
$DIMLDRBLK
  1

  9
$DIMLUNIT
 70
     2
  9
$DIMLWD
 70
    -2
  9
$DIMLWE
 70
    -2
  9
$DIMTMOVE
 70
     2
  9
$LUNITS
 70
     2
  9
$LUPREC
 70
     8
  9
$SKETCHINC
 40
0.1
  9
$FILLETRAD
 40
0.5
  9
$AUNITS
 70
     0
  9
$AUPREC
 70
     0
  9
$MENU
  1
.
  9
$ELEVATION
 40
0.0
  9
$PELEVATION
 40
0.0
  9
$THICKNESS
 40
0.0
  9
$LIMCHECK
 70
     0
  9
$CHAMFERA
 40
0.0
  9
$CHAMFERB
 40
0.0
  9
$CHAMFERC
 40
0.0
  9
$CHAMFERD
 40
0.0
  9
$SKPOLY
 70
     0
  9
$TDCREATE
 40
2459888.844061134
  9
$TDUCREATE
 40
2459888.469061134
  9
$TDUPDATE
 40
2459888.848819213
  9
$TDUUPDATE
 40
2459888.473819213
  9
$TDINDWG
 40
0.0007464005
  9
$TDUSRTIMER
 40
0.0000000116
  9
$USRTIMER
 70
     0
  9
$ANGBASE
 50
0.0
  9
$ANGDIR
 70
     0
  9
$PDMODE
 70
     0
  9
$PDSIZE
 40
0.0
  9
$PLINEWID
 40
0.0
  9
$SPLFRAME
 70
     0
  9
$SPLINETYPE
 70
     6
  9
$SPLINESEGS
 70
     8
  9
$HANDSEED
  5
445
  9
$SURFTAB1
 70
     6
  9
$SURFTAB2
 70
     6
  9
$SURFTYPE
 70
     6
  9
$SURFU
 70
     6
  9
$SURFV
 70
     6
  9
$UCSBASE
  2

  9
$UCSNAME
  2

  9
$UCSORG
 10
0.0
 20
0.0
 30
0.0
  9
$UCSXDIR
 10
1.0
 20
0.0
 30
0.0
  9
$UCSYDIR
 10
0.0
 20
1.0
 30
0.0
  9
$UCSORTHOREF
  2

  9
$UCSORTHOVIEW
 70
     0
  9
$UCSORGTOP
 10
0.0
 20
0.0
 30
0.0
  9
$UCSORGBOTTOM
 10
0.0
 20
0.0
 30
0.0
  9
$UCSORGLEFT
 10
0.0
 20
0.0
 30
0.0
  9
$UCSORGRIGHT
 10
0.0
 20
0.0
 30
0.0
  9
$UCSORGFRONT
 10
0.0
 20
0.0
 30
0.0
  9
$UCSORGBACK
 10
0.0
 20
0.0
 30
0.0
  9
$PUCSBASE
  2

  9
$PUCSNAME
  2

  9
$PUCSORG
 10
0.0
 20
0.0
 30
0.0
  9
$PUCSXDIR
 10
1.0
 20
0.0
 30
0.0
  9
$PUCSYDIR
 10
0.0
 20
1.0
 30
0.0
  9
$PUCSORTHOREF
  2

  9
$PUCSORTHOVIEW
 70
     0
  9
$PUCSORGTOP
 10
0.0
 20
0.0
 30
0.0
  9
$PUCSORGBOTTOM
 10
0.0
 20
0.0
 30
0.0
  9
$PUCSORGLEFT
 10
0.0
 20
0.0
 30
0.0
  9
$PUCSORGRIGHT
 10
0.0
 20
0.0
 30
0.0
  9
$PUCSORGFRONT
 10
0.0
 20
0.0
 30
0.0
  9
$PUCSORGBACK
 10
0.0
 20
0.0
 30
0.0
  9
$USERI1
 70
     0
  9
$USERI2
 70
     0
  9
$USERI3
 70
     0
  9
$USERI4
 70
     0
  9
$USERI5
 70
     0
  9
$USERR1
 40
0.0
  9
$USERR2
 40
0.0
  9
$USERR3
 40
0.0
  9
$USERR4
 40
0.0
  9
$USERR5
 40
0.0
  9
$WORLDVIEW
 70
     1
  9
$SHADEDGE
 70
     3
  9
$SHADEDIF
 70
    70
  9
$TILEMODE
 70
     1
  9
$MAXACTVP
 70
    64
  9
$PINSBASE
 10
0.0
 20
0.0
 30
0.0
  9
$PLIMCHECK
 70
     0
  9
$PEXTMIN
 10
1.000000000000000E+20
 20
1.000000000000000E+20
 30
1.000000000000000E+20
  9
$PEXTMAX
 10
-1.000000000000000E+20
 20
-1.000000000000000E+20
 30
-1.000000000000000E+20
  9
$PLIMMIN
 10
0.0
 20
0.0
  9
$PLIMMAX
 10
12.0
 20
9.0
  9
$UNITMODE
 70
     0
  9
$VISRETAIN
 70
     1
  9
$PLINEGEN
 70
     0
  9
$PSLTSCALE
 70
     1
  9
$TREEDEPTH
 70
  3020
  9
$CMLSTYLE
  2
Standard
  9
$CMLJUST
 70
     0
  9
$CMLSCALE
 40
1.0
  9
$PROXYGRAPHICS
 70
     1
  9
$MEASUREMENT
 70
     0
  9
$CELWEIGHT
370
    -1
  9
$ENDCAPS
280
     0
  9
$JOINSTYLE
280
     0
  9
$LWDISPLAY
290
     0
  9
$INSUNITS
 70
     0
  9
$HYPERLINKBASE
  1

  9
$STYLESHEET
  1

  9
$XEDIT
290
     1
  9
$CEPSNTYPE
380
     3
  9
$CEPSNID
390
11
  9
$PSTYLEMODE
290
     1
  9
$FINGERPRINTGUID
  2
{B17DC15D-772A-43C3-9D8D-44E5DBD9EACD}
  9
$VERSIONGUID
  2
{FAEB1C32-E019-11D5-929B-00C0DF256EC4}
  9
$EXTNAMES
290
     1
  9
$PSVPSCALE
 40
0.0
  9
$OLESTARTUP
290
     0
  9
$SORTENTS
280
   127
  9
$INDEXCTL
280
     0
  9
$HIDETEXT
280
     1
  9
$XCLIPFRAME
290
     0
  9
$HALOGAP
280
     0
  9
$OBSCOLOR
 70
   257
  9
$OBSLTYPE
280
     0
  9
$INTERSECTIONDISPLAY
280
     0
  9
$INTERSECTIONCOLOR
 70
   257
  9
$DIMASSOC
280
     1
  9
$PROJECTNAME
  1

  0
ENDSEC
  0
SECTION
  2
CLASSES
  0
CLASS
  1
ACDBDICTIONARYWDFLT
  2
AcDbDictionaryWithDefault
  3
ObjectDBX Classes
 90
        0
 91
        3
280
     0
281
     0
  0
CLASS
  1
SCALE
  2
AcDbScale
  3
ObjectDBX Classes
 90
     1153
 91
        3
280
     0
281
     0
  0
CLASS
  1
VISUALSTYLE
  2
AcDbVisualStyle
  3
ObjectDBX Classes
 90
     4095
 91
        3
280
     0
281
     0
  0
CLASS
  1
MATERIAL
  2
AcDbMaterial
  3
ObjectDBX Classes
 90
     1153
 91
        3
280
     0
281
     0
  0
CLASS
  1
TABLESTYLE
  2
AcDbTableStyle
  3
ObjectDBX Classes
 90
     4095
 91
        3
280
     0
281
     0
  0
CLASS
  1
MLEADERSTYLE
  2
AcDbMLeaderStyle
  3
ACDB_MLEADERSTYLE_CLASS
 90
     4095
 91
        3
280
     0
281
     0
  0
CLASS
  1
DICTIONARYVAR
  2
AcDbDictionaryVar
  3
ObjectDBX Classes
 90
        0
 91
        3
280
     0
281
     0
  0
CLASS
  1
CELLSTYLEMAP
  2
AcDbCellStyleMap
  3
ObjectDBX Classes
 90
     1152
 91
        3
280
     0
281
     0
  0
ENDSEC
  0
SECTION
  2
TABLES
  0
TABLE
  2
VPORT
  5
8
102
{ACAD_XDICTIONARY
360
406
102
}
330
0
100
AcDbSymbolTable
 70
     1
  0
VPORT
  5
3BC
330
8
100
AcDbSymbolTableRecord
100
AcDbViewportTableRecord
  2
*Active
 70
     0
 10
0.0
 20
0.0
 11
1.0
 21
1.0
 12
1213.409032793166
 22
901.6241687435346
 13
0.0
 23
0.0
 14
0.5
 24
0.5
 15
0.5
 25
0.5
 16
0.0
 26
0.0
 36
1.0
 17
0.0
 27
0.0
 37
0.0
 40
2666.712356946225
 41
2.612446958981613
 42
50.0
 43
0.0
 44
0.0
 50
0.0
 51
0.0
 71
     0
 72
   100
 73
     1
 74
     3
 75
     0
 76
     0
 77
     0
 78
     0
281
     0
 65
     1
110
0.0
120
0.0
130
0.0
111
1.0
121
0.0
131
0.0
112
0.0
122
1.0
132
0.0
 79
     0
146
0.0
  0
ENDTAB
  0
TABLE
  2
LTYPE
  5
5
330
0
100
AcDbSymbolTable
 70
    51
  0
LTYPE
  5
14
330
5
100
AcDbSymbolTableRecord
100
AcDbLinetypeTableRecord
  2
ByBlock
 70
     0
  3

 72
    65
 73
     0
 40
0.0
  0
LTYPE
  5
15
330
5
100
AcDbSymbolTableRecord
100
AcDbLinetypeTableRecord
  2
ByLayer
 70
     0
  3

 72
    65
 73
     0
 40
0.0
  0
LTYPE
  5
16
330
5
100
AcDbSymbolTableRecord
100
AcDbLinetypeTableRecord
  2
CONTINUOUS
 70
     0
  3
実線
 72
    65
 73
     0
 40
0.0
  0
LTYPE
  5
21
330
5
100
AcDbSymbolTableRecord
100
AcDbLinetypeTableRecord
  2
DASHED1
 70
     0
  3
--  --  --  --  --  --  --  --  
 72
    65
 73
     2
 40
2.5
 49
1.25
 74
     0
 49
-1.25
 74
     0
  0
LTYPE
  5
22
330
5
100
AcDbSymbolTableRecord
100
AcDbLinetypeTableRecord
  2
DASHED2
 70
     0
  3
----    ----    ----    ----    
 72
    65
 73
     2
 40
5.0
 49
2.5
 74
     0
 49
-2.5
 74
     0
  0
LTYPE
  5
23
330
5
100
AcDbSymbolTableRecord
100
AcDbLinetypeTableRecord
  2
DASHED3
 70
     0
  3
------  ------  ------  ------  
 72
    65
 73
     2
 40
5.0
 49
3.75
 74
     0
 49
-1.25
 74
     0
  0
LTYPE
  5
24
330
5
100
AcDbSymbolTableRecord
100
AcDbLinetypeTableRecord
  2
CENTER1
 70
     0
  3
----- - ----- - ----- - ----- - 
 72
    65
 73
     4
 40
10.0
 49
6.25
 74
     0
 49
-1.25
 74
     0
 49
1.25
 74
     0
 49
-1.25
 74
     0
  0
LTYPE
  5
25
330
5
100
AcDbSymbolTableRecord
100
AcDbLinetypeTableRecord
  2
CENTER2
 70
     0
  3
----------  --  ----------  --  
 72
    65
 73
     4
 40
20.0
 49
12.5
 74
     0
 49
-2.5
 74
     0
 49
2.5
 74
     0
 49
-2.5
 74
     0
  0
LTYPE
  5
26
330
5
100
AcDbSymbolTableRecord
100
AcDbLinetypeTableRecord
  2
PHANTOM1
 70
     0
  3
--- - - --- - - --- - - --- - - 
 72
    65
 73
     6
 40
9.5
 49
3.25
 74
     0
 49
-1.25
 74
     0
 49
1.25
 74
     0
 49
-1.25
 74
     0
 49
1.25
 74
     0
 49
-1.25
 74
     0
  0
LTYPE
  5
27
330
5
100
AcDbSymbolTableRecord
100
AcDbLinetypeTableRecord
  2
PHANTOM2
 70
     0
  3
--------  -  -  --------  -  -  
 72
    65
 73
     6
 40
20.0
 49
10.0
 74
     0
 49
-2.5
 74
     0
 49
1.25
 74
     0
 49
-2.5
 74
     0
 49
1.25
 74
     0
 49
-2.5
 74
     0
  0
LTYPE
  5
28
330
5
100
AcDbSymbolTableRecord
100
AcDbLinetypeTableRecord
  2
DOT
 70
     0
  3
-   -   -   -   -   -   -   -   
 72
    65
 73
     2
 40
2.5
 49
0.625
 74
     0
 49
-1.875
 74
     0
  0
LTYPE
  5
29
330
5
100
AcDbSymbolTableRecord
100
AcDbLinetypeTableRecord
  2
DUMMY
 70
     0
  3
ダミー
 72
    65
 73
     0
 40
0.0
  0
LTYPE
  5
2A
330
5
100
AcDbSymbolTableRecord
100
AcDbLinetypeTableRecord
  2
RAND1
 70
     0
  3
ランダム線1
 72
    65
 73
     4
 40
10.0
 49
1.0
 74
     0
 49
-2.0
 74
     0
 49
3.0
 74
     0
 49
-4.0
 74
     0
  0
LTYPE
  5
2B
330
5
100
AcDbSymbolTableRecord
100
AcDbLinetypeTableRecord
  2
RAND2
 70
     0
  3
ランダム線2
 72
    65
 73
     4
 40
14.0
 49
2.0
 74
     0
 49
-3.0
 74
     0
 49
4.0
 74
     0
 49
-5.0
 74
     0
  0
LTYPE
  5
2C
330
5
100
AcDbSymbolTableRecord
100
AcDbLinetypeTableRecord
  2
RAND3
 70
     0
  3
ランダム線3
 72
    65
 73
     4
 40
18.0
 49
3.0
 74
     0
 49
-4.0
 74
     0
 49
5.0
 74
     0
 49
-6.0
 74
     0
  0
LTYPE
  5
2D
330
5
100
AcDbSymbolTableRecord
100
AcDbLinetypeTableRecord
  2
RAND4
 70
     0
  3
ランダム線4
 72
    65
 73
     4
 40
22.0
 49
4.0
 74
     0
 49
-5.0
 74
     0
 49
6.0
 74
     0
 49
-7.0
 74
     0
  0
LTYPE
  5
2E
330
5
100
AcDbSymbolTableRecord
100
AcDbLinetypeTableRecord
  2
RAND5
 70
     0
  3
ランダム線5
 72
    65
 73
     4
 40
26.0
 49
5.0
 74
     0
 49
-6.0
 74
     0
 49
7.0
 74
     0
 49
-8.0
 74
     0
  0
LTYPE
  5
2F
330
5
100
AcDbSymbolTableRecord
100
AcDbLinetypeTableRecord
  2
LONG1
 70
     0
  3
----------  --  ----------  --  
 72
    65
 73
     4
 40
40.0
 49
32.5
 74
     0
 49
-2.5
 74
     0
 49
2.5
 74
     0
 49
-2.5
 74
     0
  0
LTYPE
  5
30
330
5
100
AcDbSymbolTableRecord
100
AcDbLinetypeTableRecord
  2
LONG2
 70
     0
  3
--------  -  -  --------  -  -  
 72
    65
 73
     6
 40
40.0
 49
30.0
 74
     0
 49
-2.5
 74
     0
 49
1.25
 74
     0
 49
-2.5
 74
     0
 49
1.25
 74
     0
 49
-2.5
 74
     0
  0
LTYPE
  5
31
330
5
100
AcDbSymbolTableRecord
100
AcDbLinetypeTableRecord
  2
LONG3
 70
     0
  3
+++++++++++++++..+++++++++++++++
 72
    65
 73
     2
 40
40.0
 49
37.5
 74
     0
 49
-2.5
 74
     0
  0
LTYPE
  5
32
330
5
100
AcDbSymbolTableRecord
100
AcDbLinetypeTableRecord
  2
LONG4
 70
     0
  3
+++++++++++++++..+++++++++++++++
 72
    65
 73
     2
 40
80.0
 49
75.0
 74
     0
 49
-5.0
 74
     0
  0
LTYPE
  5
33
330
5
100
AcDbSymbolTableRecord
100
AcDbLinetypeTableRecord
  2
LONG5
 70
     0
  3
----------  --  ----------  --  
 72
    65
 73
     4
 40
60.0
 49
37.5
 74
     0
 49
-7.5
 74
     0
 49
7.5
 74
     0
 49
-7.5
 74
     0
  0
LTYPE
  5
34
330
5
100
AcDbSymbolTableRecord
100
AcDbLinetypeTableRecord
  2
dashed
 70
     0
  3
-------   -------------   ------
 72
    65
 73
     2
 40
7.5
 49
6.0
 74
     0
 49
-1.5
 74
     0
  0
LTYPE
  5
35
330
5
100
AcDbSymbolTableRecord
100
AcDbLinetypeTableRecord
  2
dashed_spaced
 70
     0
  3
----        --------        ----
 72
    65
 73
     2
 40
12.0
 49
6.0
 74
     0
 49
-6.0
 74
     0
  0
LTYPE
  5
36
330
5
100
AcDbSymbolTableRecord
100
AcDbLinetypeTableRecord
  2
long_dashed_dotted
 70
     0
  3
------------- --- --------------
 72
    65
 73
     4
 40
15.25
 49
12.0
 74
     0
 49
-1.5
 74
     0
 49
0.25
 74
     0
 49
-1.5
 74
     0
  0
LTYPE
  5
37
330
5
100
AcDbSymbolTableRecord
100
AcDbLinetypeTableRecord
  2
long_dashed_double-dotted
 70
     0
  3
----------- --- --- ------------
 72
    65
 73
     6
 40
17.0
 49
12.0
 74
     0
 49
-1.5
 74
     0
 49
0.25
 74
     0
 49
-1.5
 74
     0
 49
0.25
 74
     0
 49
-1.5
 74
     0
  0
LTYPE
  5
38
330
5
100
AcDbSymbolTableRecord
100
AcDbLinetypeTableRecord
  2
long_dashed_triplicate-dotted
 70
     0
  3
--------- --- --- --- ----------
 72
    65
 73
     8
 40
18.75
 49
12.0
 74
     0
 49
-1.5
 74
     0
 49
0.25
 74
     0
 49
-1.5
 74
     0
 49
0.25
 74
     0
 49
-1.5
 74
     0
 49
0.25
 74
     0
 49
-1.5
 74
     0
  0
LTYPE
  5
39
330
5
100
AcDbSymbolTableRecord
100
AcDbLinetypeTableRecord
  2
dotted
 70
     0
  3
   -       -       -       -    
 72
    65
 73
     2
 40
1.75
 49
0.25
 74
     0
 49
-1.5
 74
     0
  0
LTYPE
  5
3A
330
5
100
AcDbSymbolTableRecord
100
AcDbLinetypeTableRecord
  2
chain
 70
     0
  3
-------------- -- --------------
 72
    65
 73
     4
 40
18.5
 49
12.0
 74
     0
 49
-1.5
 74
     0
 49
3.5
 74
     0
 49
-1.5
 74
     0
  0
LTYPE
  5
3B
330
5
100
AcDbSymbolTableRecord
100
AcDbLinetypeTableRecord
  2
chain_double_dash
 70
     0
  3
------------ -- -- -------------
 72
    65
 73
     6
 40
23.5
 49
12.0
 74
     0
 49
-1.5
 74
     0
 49
3.5
 74
     0
 49
-1.5
 74
     0
 49
3.5
 74
     0
 49
-1.5
 74
     0
  0
LTYPE
  5
3C
330
5
100
AcDbSymbolTableRecord
100
AcDbLinetypeTableRecord
  2
dashed_dotted
 70
     0
  3
-----------     -     ----------
 72
    65
 73
     4
 40
9.25
 49
6.0
 74
     0
 49
-1.5
 74
     0
 49
0.25
 74
     0
 49
-1.5
 74
     0
  0
LTYPE
  5
3D
330
5
100
AcDbSymbolTableRecord
100
AcDbLinetypeTableRecord
  2
double-dashed_dotted
 70
     0
  3
------   -----------   -   -----
 72
    65
 73
     6
 40
16.75
 49
6.0
 74
     0
 49
-1.5
 74
     0
 49
6.0
 74
     0
 49
-1.5
 74
     0
 49
0.25
 74
     0
 49
-1.5
 74
     0
  0
LTYPE
  5
3E
330
5
100
AcDbSymbolTableRecord
100
AcDbLinetypeTableRecord
  2
dashed_double-dotted
 70
     0
  3
---------    -    -    ---------
 72
    65
 73
     6
 40
11.0
 49
6.0
 74
     0
 49
-1.5
 74
     0
 49
0.25
 74
     0
 49
-1.5
 74
     0
 49
0.25
 74
     0
 49
-1.5
 74
     0
  0
LTYPE
  5
3F
330
5
100
AcDbSymbolTableRecord
100
AcDbLinetypeTableRecord
  2
double-dashed_double-dotted
 70
     0
  3
-----   ---------   -   -   ----
 72
    65
 73
     8
 40
18.5
 49
6.0
 74
     0
 49
-1.5
 74
     0
 49
6.0
 74
     0
 49
-1.5
 74
     0
 49
0.25
 74
     0
 49
-1.5
 74
     0
 49
0.25
 74
     0
 49
-1.5
 74
     0
  0
LTYPE
  5
40
330
5
100
AcDbSymbolTableRecord
100
AcDbLinetypeTableRecord
  2
dashed_triplicate-dotted
 70
     0
  3
-------    -    -    -    ------
 72
    65
 73
     8
 40
12.75
 49
6.0
 74
     0
 49
-1.5
 74
     0
 49
0.25
 74
     0
 49
-1.5
 74
     0
 49
0.25
 74
     0
 49
-1.5
 74
     0
 49
0.25
 74
     0
 49
-1.5
 74
     0
  0
LTYPE
  5
41
330
5
100
AcDbSymbolTableRecord
100
AcDbLinetypeTableRecord
  2
double-dashed_triplicate-dotted
 70
     0
  3
-----  ---------  -  -  -  -----
 72
    65
 73
    10
 40
20.25
 49
6.0
 74
     0
 49
-1.5
 74
     0
 49
6.0
 74
     0
 49
-1.5
 74
     0
 49
0.25
 74
     0
 49
-1.5
 74
     0
 49
0.25
 74
     0
 49
-1.5
 74
     0
 49
0.25
 74
     0
 49
-1.5
 74
     0
  0
LTYPE
  5
42
330
5
100
AcDbSymbolTableRecord
100
AcDbLinetypeTableRecord
  2
undefined
 70
     0
  3
--------------------------------
 72
    65
 73
     0
 40
0.0
  0
LTYPE
  5
43
330
5
100
AcDbSymbolTableRecord
100
AcDbLinetypeTableRecord
  2
AI-Linetype-4
 70
     0
  3
----        --------        ----
 72
    65
 73
     2
 40
1.000002201219374
 49
0.500001100609687
 74
     0
 49
-0.500001100609687
 74
     0
  0
LTYPE
  5
44
330
5
100
AcDbSymbolTableRecord
100
AcDbLinetypeTableRecord
  2
繝_繧_繝_繧_繧_繝__24
 70
     0
  3
------     -----------     -----
 72
    65
 73
     2
 40
0.5905511811023623
 49
0.3937007874015748
 74
     0
 49
-0.1968503937007874
 74
     0
  0
LTYPE
  5
45
330
5
100
AcDbSymbolTableRecord
100
AcDbLinetypeTableRecord
  2
繝_繧_繝_繧_繧_繝__23
 70
     0
  3
----        --------        ----
 72
    65
 73
     2
 40
0.8332799999999998
 49
0.4165599999999998
 74
     0
 49
-0.4167199999999999
 74
     0
  0
LTYPE
  5
46
330
5
100
AcDbSymbolTableRecord
100
AcDbLinetypeTableRecord
  2
繝_繧_繝_繧_繧_繝__22
 70
     0
  3
----     -----     -----     ---
 72
    65
 73
     6
 40
1.450582677165354
 49
0.241763779527559
 74
     0
 49
-0.241763779527559
 74
     0
 49
0.241763779527559
 74
     0
 49
-0.241763779527559
 74
     0
 49
0.241763779527559
 74
     0
 49
-0.241763779527559
 74
     0
  0
LTYPE
  5
47
330
5
100
AcDbSymbolTableRecord
100
AcDbLinetypeTableRecord
  2
繝_繧_繝_繧_繧_繝__21
 70
     0
  3
----     -----     -----     ---
 72
    65
 73
     6
 40
1.308833858267716
 49
0.2181389763779527
 74
     0
 49
-0.2181389763779527
 74
     0
 49
0.2181389763779527
 74
     0
 49
-0.2181389763779527
 74
     0
 49
0.2181389763779527
 74
     0
 49
-0.2181389763779529
 74
     0
  0
LTYPE
  5
48
330
5
100
AcDbSymbolTableRecord
100
AcDbLinetypeTableRecord
  2
繝_繧_繝_繧_繧_繝__19
 70
     0
  3
-----------  --  --  -----------
 72
    65
 73
     6
 40
4.166667716535432
 49
2.777777952755906
 74
     0
 49
-0.2777779527559052
 74
     0
 49
0.2777779527559052
 74
     0
 49
-0.2777779527559052
 74
     0
 49
0.2777779527559052
 74
     0
 49
-0.2777779527559052
 74
     0
  0
LTYPE
  5
49
330
5
100
AcDbSymbolTableRecord
100
AcDbLinetypeTableRecord
  2
繝_繧_繝_繧_繧_繝__18
 70
     0
  3
-----      ----------      -----
 72
    65
 73
     2
 40
1.527777777777778
 49
0.9722222222222222
 74
     0
 49
-0.5555555555555554
 74
     0
  0
LTYPE
  5
4A
330
5
100
AcDbSymbolTableRecord
100
AcDbLinetypeTableRecord
  2
繝_繧_繝_繧_繧_繝__17
 70
     0
  3
----------    ----    ----------
 72
    65
 73
     4
 40
4.305555555555555
 49
2.638888888888889
 74
     0
 49
-0.5555555555555552
 74
     0
 49
0.5555555555555558
 74
     0
 49
-0.5555555555555558
 74
     0
  0
LTYPE
  5
4B
330
5
100
AcDbSymbolTableRecord
100
AcDbLinetypeTableRecord
  2
繝_繧_繝_繧_繧_繝__16
 70
     0
  3
-------- --------------- -------
 72
    65
 73
     2
 40
40.01
 49
40.0
 74
     0
 49
-0.01
 74
     0
  0
LTYPE
  5
4C
330
5
100
AcDbSymbolTableRecord
100
AcDbLinetypeTableRecord
  2
繝_繧_繝_繧_繧_繝__15
 70
     0
  3
--------    --    --    --------
 72
    65
 73
     6
 40
0.0644061102362205
 49
0.0322030551181102
 74
     0
 49
-0.0080508346456693
 74
     0
 49
0.0040252755905512
 74
     0
 49
-0.0080508346456693
 74
     0
 49
0.0040252755905512
 74
     0
 49
-0.0080508346456693
 74
     0
  0
LTYPE
  5
4D
330
5
100
AcDbSymbolTableRecord
100
AcDbLinetypeTableRecord
  2
繝_繧_繝_繧_繧_繝__14
 70
     0
  3
-----------   -   -   ----------
 72
    65
 73
     6
 40
0.0798610944881885
 49
0.0520833307086613
 74
     0
 49
-0.0069444409448818
 74
     0
 49
0.0034722204724409
 74
     0
 49
-0.0069444409448818
 74
     0
 49
0.0034722204724409
 74
     0
 49
-0.0069444409448818
 74
     0
  0
LTYPE
  5
4E
330
5
100
AcDbSymbolTableRecord
100
AcDbLinetypeTableRecord
  2
繝_繧_繝_繧_繧_繝__13
 70
     0
  3
-----------   -   -   ----------
 72
    65
 73
     6
 40
0.0638889055118109
 49
0.0416666692913386
 74
     0
 49
-0.0055555590551181
 74
     0
 49
0.002777779527559
 74
     0
 49
-0.0055555590551181
 74
     0
 49
0.002777779527559
 74
     0
 49
-0.0055555590551181
 74
     0
  0
LTYPE
  5
4F
330
5
100
AcDbSymbolTableRecord
100
AcDbLinetypeTableRecord
  2
繝_繧_繝_繧_繧_繝__12
 70
     0
  3
-----------  --  --  -----------
 72
    65
 73
     6
 40
0.0416666771653541
 49
0.0277777795275591
 74
     0
 49
-0.002777779527559
 74
     0
 49
0.002777779527559
 74
     0
 49
-0.002777779527559
 74
     0
 49
0.002777779527559
 74
     0
 49
-0.002777779527559
 74
     0
  0
LTYPE
  5
50
330
5
100
AcDbSymbolTableRecord
100
AcDbLinetypeTableRecord
  2
繝_繧_繝_繧_繧_繝__11
 70
     0
  3
--            ----            --
 72
    65
 73
     2
 40
0.137795275590551
 49
0.0344488188976376
 74
     0
 49
-0.1033464566929134
 74
     0
  0
LTYPE
  5
51
330
5
100
AcDbSymbolTableRecord
100
AcDbLinetypeTableRecord
  2
繝_繧_繝_繧_繧_繝__10
 70
     0
  3
----------- ---- ---  ----------
 72
    65
 73
     6
 40
11.875
 49
7.5
 74
     0
 49
-0.5555699999999995
 74
     0
 49
1.388860000000001
 74
     0
 49
-0.5555699999999995
 74
     0
 49
1.25
 74
     0
 49
-0.625
 74
     0
  0
LTYPE
  5
52
330
5
100
AcDbSymbolTableRecord
100
AcDbLinetypeTableRecord
  2
繝_繧_繝_繧_繧_繝__9
 70
     0
  3
-----------   -----   ----------
 72
    65
 73
     4
 40
5.138888888888888
 49
3.333333333333333
 74
     0
 49
-0.5555555555555558
 74
     0
 49
0.8333333333333331
 74
     0
 49
-0.4166666666666663
 74
     0
  0
ENDTAB
  0
TABLE
  2
LAYER
  5
2
330
0
100
AcDbSymbolTable
 70
    19
  0
LAYER
  5
10
330
2
100
AcDbSymbolTableRecord
100
AcDbLayerTableRecord
  2
0
 70
     0
 62
     7
  6
CONTINUOUS
370
    -3
390
11
  0
LAYER
  5
55
330
2
100
AcDbSymbolTableRecord
100
AcDbLayerTableRecord
  2
_0-0_
 70
     0
 62
     7
  6
CONTINUOUS
370
    -3
390
F
  0
LAYER
  5
56
330
2
100
AcDbSymbolTableRecord
100
AcDbLayerTableRecord
  2
_0-1_荳_闊_
 70
     0
 62
     7
  6
CONTINUOUS
370
    -3
390
F
  0
LAYER
  5
57
330
2
100
AcDbSymbolTableRecord
100
AcDbLayerTableRecord
  2
_0-2_蟇_豕__
 70
     0
 62
     7
  6
CONTINUOUS
370
    -3
390
F
  0
LAYER
  5
58
330
2
100
AcDbSymbolTableRecord
100
AcDbLayerTableRecord
  2
_0-a__0-2_蟇_豕__ts
 70
     0
 62
     7
  6
CONTINUOUS
370
    -3
390
F
  0
LAYER
  5
59
330
2
100
AcDbSymbolTableRecord
100
AcDbLayerTableRecord
  2
_0-b__0-2_蟇_豕___2-1
 70
     0
 62
     7
  6
CONTINUOUS
370
    -3
390
F
  0
LAYER
  5
5A
330
2
100
AcDbSymbolTableRecord
100
AcDbLayerTableRecord
  2
_0-e__0-2_蟇_豕___7-1
 70
     0
 62
     7
  6
CONTINUOUS
370
    -3
390
F
  0
LAYER
  5
5B
330
2
100
AcDbSymbolTableRecord
100
AcDbLayerTableRecord
  2
_1-0__0-2_蟇_豕___1
 70
     0
 62
     7
  6
CONTINUOUS
370
    -3
390
F
  0
LAYER
  5
5C
330
2
100
AcDbSymbolTableRecord
100
AcDbLayerTableRecord
  2
_1-1__0-2_蟇_豕___4-1
 70
     0
 62
     7
  6
CONTINUOUS
370
    -3
390
F
  0
LAYER
  5
5D
330
2
100
AcDbSymbolTableRecord
100
AcDbLayerTableRecord
  2
ADD_LINE
 70
     0
 62
     7
  6
CONTINUOUS
370
    -3
390
F
  0
LAYER
  5
3BD
330
2
100
AcDbSymbolTableRecord
100
AcDbLayerTableRecord
  2
_1-6__0-7__0-3_Defpoints
 70
     0
 62
     7
  6
CONTINUOUS
370
    -3
390
F
  0
LAYER
  5
3BE
330
2
100
AcDbSymbolTableRecord
100
AcDbLayerTableRecord
  2
_1-b__0-f__0-2_蟇_豕___6-1
 70
     0
 62
     7
  6
CONTINUOUS
370
    -3
390
F
  0
LAYER
  5
3BF
330
2
100
AcDbSymbolTableRecord
100
AcDbLayerTableRecord
  2
_1-a__0-d__0-2_蟇_豕___5-1
 70
     0
 62
     7
  6
CONTINUOUS
370
    -3
390
F
  0
LAYER
  5
3C0
330
2
100
AcDbSymbolTableRecord
100
AcDbLayerTableRecord
  2
_1-9__0-c__0-2_蟇_豕___3-1
 70
     0
 62
     7
  6
CONTINUOUS
370
    -3
390
F
  0
LAYER
  5
3C1
330
2
100
AcDbSymbolTableRecord
100
AcDbLayerTableRecord
  2
_1-8__0-9__0-2_蟇_豕______________
 70
     0
 62
     7
  6
CONTINUOUS
370
    -3
390
F
  0
LAYER
  5
3C2
330
2
100
AcDbSymbolTableRecord
100
AcDbLayerTableRecord
  2
_1-5__0-6__0-2_蟇_豕__0___50__0_0___71_______0___42__1_0____3__txt____4__bigfont_shx____0__ENDTAB____0__EOF__
 70
     0
 62
     7
  6
CONTINUOUS
370
    -3
390
F
  0
LAYER
  5
3C3
330
2
100
AcDbSymbolTableRecord
100
AcDbLayerTableRecord
  2
_1-7__0-8__0-2_蟇_豕____5__3__100__AcDbSymbolTable___70_______1____0__STYLE____5__10__100__AcDbSymbolTableReco
 70
     0
 62
     7
  6
CONTINUOUS
370
    -3
390
F
  0
LAYER
  5
3C4
330
2
100
AcDbSymbolTableRecord
100
AcDbLayerTableRecord
  2
_1-4__0-5__0-2_蟇_豕__0
 70
     0
 62
     7
  6
CONTINUOUS
370
    -3
390
F
  0
LAYER
  5
3C5
330
2
100
AcDbSymbolTableRecord
100
AcDbLayerTableRecord
  2
_1-3__0-4__0-0_0
 70
     0
 62
     7
  6
CONTINUOUS
370
    -3
390
F
  0
ENDTAB
  0
TABLE
  2
STYLE
  5
3
330
0
100
AcDbSymbolTable
 70
     2
  0
STYLE
  5
12
330
3
100
AcDbSymbolTableRecord
100
AcDbTextStyleTableRecord
  2
STANDARD
 70
     0
 40
0.0
 41
1.0
 50
0.0
 71
     0
 42
0.2
  3
txt
  4
bigfont.shx
  0
STYLE
  5
54
330
3
100
AcDbSymbolTableRecord
100
AcDbTextStyleTableRecord
  2
TATEGAKI
 70
     4
 40
0.0
 41
1.0
 50
0.0
 71
     0
 42
1.0
  3
txt
  4
bigfont.shx
  0
ENDTAB
  0
TABLE
  2
VIEW
  5
6
330
0
100
AcDbSymbolTable
 70
     0
  0
ENDTAB
  0
TABLE
  2
UCS
  5
7
330
0
100
AcDbSymbolTable
 70
     0
  0
ENDTAB
  0
TABLE
  2
APPID
  5
9
330
0
100
AcDbSymbolTable
 70
     3
  0
APPID
  5
13
330
9
100
AcDbSymbolTableRecord
100
AcDbRegAppTableRecord
  2
ACAD
 70
     0
  0
APPID
  5
3FD
330
9
100
AcDbSymbolTableRecord
100
AcDbRegAppTableRecord
  2
ACAD_MLEADERVER
 70
     0
  0
APPID
  5
3FE
330
9
100
AcDbSymbolTableRecord
100
AcDbRegAppTableRecord
  2
ACAD_PSEXT
 70
     0
  0
ENDTAB
  0
TABLE
  2
DIMSTYLE
  5
A
330
0
100
AcDbSymbolTable
 70
     1
100
AcDbDimStyleTable
  0
DIMSTYLE
105
5E
330
A
100
AcDbSymbolTableRecord
100
AcDbDimStyleTableRecord
  2
Standard
 70
     0
178
     0
340
12
  0
ENDTAB
  0
TABLE
  2
BLOCK_RECORD
  5
1
330
0
100
AcDbSymbolTable
 70
    38
  0
BLOCK_RECORD
  5
1D
330
1
100
AcDbSymbolTableRecord
100
AcDbBlockTableRecord
  2
$MODEL_SPACE
340
1E
  0
BLOCK_RECORD
  5
1B
330
1
100
AcDbSymbolTableRecord
100
AcDbBlockTableRecord
  2
$PAPER_SPACE
340
1C
  0
BLOCK_RECORD
  5
60
330
1
100
AcDbSymbolTableRecord
100
AcDbBlockTableRecord
  2
-000-繧_繝_繝_繝__1
340
0
102
{BLKREFS
331
2C7
102
}
  0
BLOCK_RECORD
  5
83
330
1
100
AcDbSymbolTableRecord
100
AcDbBlockTableRecord
  2
-001-VW_EMPTYBALL
340
0
102
{BLKREFS
331
8B
331
8C
331
97
331
98
331
A3
331
A4
331
B1
331
B2
331
BD
331
BE
331
C9
331
CA
331
D5
331
D6
331
E3
331
E4
331
EF
331
F0
331
FB
331
FC
331
12B
331
12C
331
137
331
138
331
143
331
144
331
14F
331
150
331
195
331
196
331
1A1
331
1A2
331
1AD
331
1AE
331
1BB
331
1BC
331
1C7
331
1C8
331
1D3
331
1D4
331
1E1
331
1E2
331
1EF
331
1F0
331
1FB
331
1FC
331
207
331
208
331
213
331
214
331
21F
331
220
331
22B
331
22C
331
237
331
238
331
243
331
244
331
24F
331
250
331
2BE
331
2BF
331
3A6
331
3A7
331
3AD
331
3AE
331
3B6
331
3B7
102
}
  0
BLOCK_RECORD
  5
87
330
1
100
AcDbSymbolTableRecord
100
AcDbBlockTableRecord
  2
-002-_D2
340
0
102
{BLKREFS
331
2C8
102
}
  0
BLOCK_RECORD
  5
93
330
1
100
AcDbSymbolTableRecord
100
AcDbBlockTableRecord
  2
-003-_D3
340
0
102
{BLKREFS
331
2C9
102
}
  0
BLOCK_RECORD
  5
9F
330
1
100
AcDbSymbolTableRecord
100
AcDbBlockTableRecord
  2
-004-_D4
340
0
102
{BLKREFS
331
2CE
102
}
  0
BLOCK_RECORD
  5
AB
330
1
100
AcDbSymbolTableRecord
100
AcDbBlockTableRecord
  2
-005-_D5
340
0
102
{BLKREFS
331
2D2
102
}
  0
BLOCK_RECORD
  5
B9
330
1
100
AcDbSymbolTableRecord
100
AcDbBlockTableRecord
  2
-006-_D6
340
0
102
{BLKREFS
331
2D3
102
}
  0
BLOCK_RECORD
  5
C5
330
1
100
AcDbSymbolTableRecord
100
AcDbBlockTableRecord
  2
-007-_D7
340
0
102
{BLKREFS
331
2D4
102
}
  0
BLOCK_RECORD
  5
D1
330
1
100
AcDbSymbolTableRecord
100
AcDbBlockTableRecord
  2
-008-_D8
340
0
102
{BLKREFS
331
2D6
102
}
  0
BLOCK_RECORD
  5
DD
330
1
100
AcDbSymbolTableRecord
100
AcDbBlockTableRecord
  2
-009-_D9
340
0
102
{BLKREFS
331
2EC
102
}
  0
BLOCK_RECORD
  5
EB
330
1
100
AcDbSymbolTableRecord
100
AcDbBlockTableRecord
  2
-010-_D10
340
0
102
{BLKREFS
331
2ED
102
}
  0
BLOCK_RECORD
  5
F7
330
1
100
AcDbSymbolTableRecord
100
AcDbBlockTableRecord
  2
-011-_D11
340
0
102
{BLKREFS
331
2EE
102
}
  0
BLOCK_RECORD
  5
103
330
1
100
AcDbSymbolTableRecord
100
AcDbBlockTableRecord
  2
-012-繧_繝_繝_繝__2-1
340
0
102
{BLKREFS
331
2F8
102
}
  0
BLOCK_RECORD
  5
127
330
1
100
AcDbSymbolTableRecord
100
AcDbBlockTableRecord
  2
-013-_D13
340
0
102
{BLKREFS
331
2FA
102
}
  0
BLOCK_RECORD
  5
133
330
1
100
AcDbSymbolTableRecord
100
AcDbBlockTableRecord
  2
-014-_D15
340
0
102
{BLKREFS
331
304
102
}
  0
BLOCK_RECORD
  5
13F
330
1
100
AcDbSymbolTableRecord
100
AcDbBlockTableRecord
  2
-015-_D16
340
0
102
{BLKREFS
331
305
102
}
  0
BLOCK_RECORD
  5
14B
330
1
100
AcDbSymbolTableRecord
100
AcDbBlockTableRecord
  2
-016-_D17
340
0
102
{BLKREFS
331
306
102
}
  0
BLOCK_RECORD
  5
157
330
1
100
AcDbSymbolTableRecord
100
AcDbBlockTableRecord
  2
-017-繧_繝_繝_繝__4-1
340
0
102
{BLKREFS
331
307
102
}
  0
BLOCK_RECORD
  5
191
330
1
100
AcDbSymbolTableRecord
100
AcDbBlockTableRecord
  2
-018-_D19
340
0
102
{BLKREFS
331
308
102
}
  0
BLOCK_RECORD
  5
19D
330
1
100
AcDbSymbolTableRecord
100
AcDbBlockTableRecord
  2
-019-_D20
340
0
102
{BLKREFS
331
309
102
}
  0
BLOCK_RECORD
  5
1A9
330
1
100
AcDbSymbolTableRecord
100
AcDbBlockTableRecord
  2
-023-_D24
340
0
102
{BLKREFS
331
31C
102
}
  0
BLOCK_RECORD
  5
1B5
330
1
100
AcDbSymbolTableRecord
100
AcDbBlockTableRecord
  2
-024-_D25
340
0
102
{BLKREFS
331
329
102
}
  0
BLOCK_RECORD
  5
1C3
330
1
100
AcDbSymbolTableRecord
100
AcDbBlockTableRecord
  2
-025-_D26
340
0
102
{BLKREFS
331
32A
102
}
  0
BLOCK_RECORD
  5
1CF
330
1
100
AcDbSymbolTableRecord
100
AcDbBlockTableRecord
  2
-026-_D27
340
0
102
{BLKREFS
331
339
102
}
  0
BLOCK_RECORD
  5
1DB
330
1
100
AcDbSymbolTableRecord
100
AcDbBlockTableRecord
  2
-027-_D28
340
0
102
{BLKREFS
331
33A
102
}
  0
BLOCK_RECORD
  5
1E9
330
1
100
AcDbSymbolTableRecord
100
AcDbBlockTableRecord
  2
-028-_D29
340
0
102
{BLKREFS
331
33B
102
}
  0
BLOCK_RECORD
  5
1F7
330
1
100
AcDbSymbolTableRecord
100
AcDbBlockTableRecord
  2
-029-_D30
340
0
102
{BLKREFS
331
33C
102
}
  0
BLOCK_RECORD
  5
203
330
1
100
AcDbSymbolTableRecord
100
AcDbBlockTableRecord
  2
-030-_D31
340
0
102
{BLKREFS
331
33D
102
}
  0
BLOCK_RECORD
  5
20F
330
1
100
AcDbSymbolTableRecord
100
AcDbBlockTableRecord
  2
-031-_D32
340
0
102
{BLKREFS
331
33E
102
}
  0
BLOCK_RECORD
  5
21B
330
1
100
AcDbSymbolTableRecord
100
AcDbBlockTableRecord
  2
-032-_D33
340
0
102
{BLKREFS
331
33F
102
}
  0
BLOCK_RECORD
  5
227
330
1
100
AcDbSymbolTableRecord
100
AcDbBlockTableRecord
  2
-033-_D34
340
0
102
{BLKREFS
331
340
102
}
  0
BLOCK_RECORD
  5
233
330
1
100
AcDbSymbolTableRecord
100
AcDbBlockTableRecord
  2
-034-_D35
340
0
102
{BLKREFS
331
341
102
}
  0
BLOCK_RECORD
  5
23F
330
1
100
AcDbSymbolTableRecord
100
AcDbBlockTableRecord
  2
-035-_D36
340
0
102
{BLKREFS
331
342
102
}
  0
BLOCK_RECORD
  5
24B
330
1
100
AcDbSymbolTableRecord
100
AcDbBlockTableRecord
  2
-036-_D38
340
0
102
{BLKREFS
331
387
102
}
  0
BLOCK_RECORD
  5
257
330
1
100
AcDbSymbolTableRecord
100
AcDbBlockTableRecord
  2
-037-繧_繝_繝_繝__6-1
340
0
102
{BLKREFS
331
388
102
}
  0
BLOCK_RECORD
  5
27B
330
1
100
AcDbSymbolTableRecord
100
AcDbBlockTableRecord
  2
-038-繧_繝_繝_繝__7-1
340
0
102
{BLKREFS
331
389
102
}
  0
BLOCK_RECORD
  5
29F
330
1
100
AcDbSymbolTableRecord
100
AcDbBlockTableRecord
  2
-039-繧_繝_繝_繝__8-1
340
0
102
{BLKREFS
331
394
102
}
  0
BLOCK_RECORD
  5
2B8
330
1
100
AcDbSymbolTableRecord
100
AcDbBlockTableRecord
  2
-040-_D42
340
0
102
{BLKREFS
331
395
102
}
  0
ENDTAB
  0
ENDSEC
  0
SECTION
  2
BLOCKS
  0
BLOCK
  5
3DA
330
1D
100
AcDbEntity
  8
0
100
AcDbBlockBegin
  2
$MODEL_SPACE
 70
     0
 10
0.0
 20
0.0
 30
0.0
  3
$MODEL_SPACE
  1
Acad:XRef
  0
ENDBLK
  5
3DB
330
1D
100
AcDbEntity
  8
0
100
AcDbBlockEnd
  0
BLOCK
  5
3D8
330
1B
100
AcDbEntity
 67
     1
  8
0
100
AcDbBlockBegin
  2
$PAPER_SPACE
 70
     0
 10
0.0
 20
0.0
 30
0.0
  3
$PAPER_SPACE
  1
Acad:XRef
  0
ENDBLK
  5
3D9
330
1B
100
AcDbEntity
 67
     1
  8
0
100
AcDbBlockEnd
  0
BLOCK
  5
5F
330
60
100
AcDbEntity
  8
0
100
AcDbBlockBegin
  2
-000-繧_繝_繝_繝__1
 70
     0
 10
0.0
 20
0.0
 30
0.0
  3
-000-繧_繝_繝_繝__1
  1

  0
LINE
  5
61
330
60
100
AcDbEntity
  8
_0-1_荳_闊_
  6
繝_繧_繝_繧_繧_繝__24
 62
     7
100
AcDbLine
 10
822.9887580914088
 20
263.089113926464
 30
0.0
 11
822.9887580914088
 21
313.089113926464
 31
0.0
  0
LINE
  5
62
330
60
100
AcDbEntity
  8
_0-1_荳_闊_
  6
繝_繧_繝_繧_繧_繝__24
 62
     7
100
AcDbLine
 10
822.9887580914088
 20
313.089113926464
 30
0.0
 11
852.9887580914087
 21
313.089113926464
 31
0.0
  0
LINE
  5
63
330
60
100
AcDbEntity
  8
_0-1_荳_闊_
  6
繝_繧_繝_繧_繧_繝__24
 62
     7
100
AcDbLine
 10
852.9887580914087
 20
313.089113926464
 30
0.0
 11
852.9887580914087
 21
263.089113926464
 31
0.0
  0
LINE
  5
64
330
60
100
AcDbEntity
  8
_0-1_荳_闊_
  6
繝_繧_繝_繧_繧_繝__24
 62
     7
100
AcDbLine
 10
852.9887580914087
 20
263.089113926464
 30
0.0
 11
822.9887580914088
 21
263.089113926464
 31
0.0
  0
LINE
  5
65
330
60
100
AcDbEntity
  8
_0-1_荳_闊_
  6
繝_繧_繝_繧_繧_繝__24
 62
     7
100
AcDbLine
 10
822.9887580914088
 20
319.089113926464
 30
0.0
 11
822.9887580914088
 21
369.089113926464
 31
0.0
  0
LINE
  5
66
330
60
100
AcDbEntity
  8
_0-1_荳_闊_
  6
繝_繧_繝_繧_繧_繝__24
 62
     7
100
AcDbLine
 10
822.9887580914088
 20
369.089113926464
 30
0.0
 11
852.9887580914087
 21
369.089113926464
 31
0.0
  0
LINE
  5
67
330
60
100
AcDbEntity
  8
_0-1_荳_闊_
  6
繝_繧_繝_繧_繧_繝__24
 62
     7
100
AcDbLine
 10
852.9887580914087
 20
369.089113926464
 30
0.0
 11
852.9887580914087
 21
319.089113926464
 31
0.0
  0
LINE
  5
68
330
60
100
AcDbEntity
  8
_0-1_荳_闊_
  6
繝_繧_繝_繧_繧_繝__24
 62
     7
100
AcDbLine
 10
852.9887580914087
 20
319.089113926464
 30
0.0
 11
822.9887580914088
 21
319.089113926464
 31
0.0
  0
LINE
  5
69
330
60
100
AcDbEntity
  8
_0-1_荳_闊_
  6
繝_繧_繝_繧_繧_繝__24
 62
     7
100
AcDbLine
 10
822.9887580914088
 20
375.089113926464
 30
0.0
 11
822.9887580914088
 21
425.089113926464
 31
0.0
  0
LINE
  5
6A
330
60
100
AcDbEntity
  8
_0-1_荳_闊_
  6
繝_繧_繝_繧_繧_繝__24
 62
     7
100
AcDbLine
 10
822.9887580914088
 20
425.089113926464
 30
0.0
 11
852.9887580914087
 21
425.089113926464
 31
0.0
  0
LINE
  5
6B
330
60
100
AcDbEntity
  8
_0-1_荳_闊_
  6
繝_繧_繝_繧_繧_繝__24
 62
     7
100
AcDbLine
 10
852.9887580914087
 20
425.089113926464
 30
0.0
 11
852.9887580914087
 21
375.089113926464
 31
0.0
  0
LINE
  5
6C
330
60
100
AcDbEntity
  8
_0-1_荳_闊_
  6
繝_繧_繝_繧_繧_繝__24
 62
     7
100
AcDbLine
 10
852.9887580914087
 20
375.089113926464
 30
0.0
 11
822.9887580914088
 21
375.089113926464
 31
0.0
  0
LINE
  5
6D
330
60
100
AcDbEntity
  8
_0-1_荳_闊_
  6
繝_繧_繝_繧_繧_繝__24
 62
     7
100
AcDbLine
 10
822.9887580914088
 20
431.089113926464
 30
0.0
 11
822.9887580914088
 21
481.089113926464
 31
0.0
  0
LINE
  5
6E
330
60
100
AcDbEntity
  8
_0-1_荳_闊_
  6
繝_繧_繝_繧_繧_繝__24
 62
     7
100
AcDbLine
 10
822.9887580914088
 20
481.089113926464
 30
0.0
 11
852.9887580914087
 21
481.089113926464
 31
0.0
  0
LINE
  5
6F
330
60
100
AcDbEntity
  8
_0-1_荳_闊_
  6
繝_繧_繝_繧_繧_繝__24
 62
     7
100
AcDbLine
 10
852.9887580914087
 20
481.089113926464
 30
0.0
 11
852.9887580914087
 21
431.089113926464
 31
0.0
  0
LINE
  5
70
330
60
100
AcDbEntity
  8
_0-1_荳_闊_
  6
繝_繧_繝_繧_繧_繝__24
 62
     7
100
AcDbLine
 10
852.9887580914087
 20
431.089113926464
 30
0.0
 11
822.9887580914088
 21
431.089113926464
 31
0.0
  0
LINE
  5
71
330
60
100
AcDbEntity
  8
_0-1_荳_闊_
  6
繝_繧_繝_繧_繧_繝__24
 62
     7
100
AcDbLine
 10
822.9887580914088
 20
487.089113926464
 30
0.0
 11
822.9887580914088
 21
537.089113926464
 31
0.0
  0
LINE
  5
72
330
60
100
AcDbEntity
  8
_0-1_荳_闊_
  6
繝_繧_繝_繧_繧_繝__24
 62
     7
100
AcDbLine
 10
822.9887580914088
 20
537.089113926464
 30
0.0
 11
852.9887580914087
 21
537.089113926464
 31
0.0
  0
LINE
  5
73
330
60
100
AcDbEntity
  8
_0-1_荳_闊_
  6
繝_繧_繝_繧_繧_繝__24
 62
     7
100
AcDbLine
 10
852.9887580914087
 20
537.089113926464
 30
0.0
 11
852.9887580914087
 21
487.089113926464
 31
0.0
  0
LINE
  5
74
330
60
100
AcDbEntity
  8
_0-1_荳_闊_
  6
繝_繧_繝_繧_繧_繝__24
 62
     7
100
AcDbLine
 10
852.9887580914087
 20
487.089113926464
 30
0.0
 11
822.9887580914088
 21
487.089113926464
 31
0.0
  0
LINE
  5
75
330
60
100
AcDbEntity
  8
_0-1_荳_闊_
  6
繝_繧_繝_繧_繧_繝__24
 62
     7
100
AcDbLine
 10
822.9887580914088
 20
543.089113926464
 30
0.0
 11
822.9887580914088
 21
593.089113926464
 31
0.0
  0
LINE
  5
76
330
60
100
AcDbEntity
  8
_0-1_荳_闊_
  6
繝_繧_繝_繧_繧_繝__24
 62
     7
100
AcDbLine
 10
822.9887580914088
 20
593.089113926464
 30
0.0
 11
852.9887580914087
 21
593.089113926464
 31
0.0
  0
LINE
  5
77
330
60
100
AcDbEntity
  8
_0-1_荳_闊_
  6
繝_繧_繝_繧_繧_繝__24
 62
     7
100
AcDbLine
 10
852.9887580914087
 20
593.089113926464
 30
0.0
 11
852.9887580914087
 21
543.089113926464
 31
0.0
  0
LINE
  5
78
330
60
100
AcDbEntity
  8
_0-1_荳_闊_
  6
繝_繧_繝_繧_繧_繝__24
 62
     7
100
AcDbLine
 10
852.9887580914087
 20
543.089113926464
 30
0.0
 11
822.9887580914088
 21
543.089113926464
 31
0.0
  0
LINE
  5
79
330
60
100
AcDbEntity
  8
_0-1_荳_闊_
  6
繝_繧_繝_繧_繧_繝__24
 62
     7
100
AcDbLine
 10
822.9887580914088
 20
599.089113926464
 30
0.0
 11
822.9887580914088
 21
649.089113926464
 31
0.0
  0
LINE
  5
7A
330
60
100
AcDbEntity
  8
_0-1_荳_闊_
  6
繝_繧_繝_繧_繧_繝__24
 62
     7
100
AcDbLine
 10
822.9887580914088
 20
649.089113926464
 30
0.0
 11
852.9887580914087
 21
649.089113926464
 31
0.0
  0
LINE
  5
7B
330
60
100
AcDbEntity
  8
_0-1_荳_闊_
  6
繝_繧_繝_繧_繧_繝__24
 62
     7
100
AcDbLine
 10
852.9887580914087
 20
649.089113926464
 30
0.0
 11
852.9887580914087
 21
599.089113926464
 31
0.0
  0
LINE
  5
7C
330
60
100
AcDbEntity
  8
_0-1_荳_闊_
  6
繝_繧_繝_繧_繧_繝__24
 62
     7
100
AcDbLine
 10
852.9887580914087
 20
599.089113926464
 30
0.0
 11
822.9887580914088
 21
599.089113926464
 31
0.0
  0
LINE
  5
7D
330
60
100
AcDbEntity
  8
_0-1_荳_闊_
  6
繝_繧_繝_繧_繧_繝__24
 62
     7
100
AcDbLine
 10
822.9887580914088
 20
655.089113926464
 30
0.0
 11
822.9887580914088
 21
705.089113926464
 31
0.0
  0
LINE
  5
7E
330
60
100
AcDbEntity
  8
_0-1_荳_闊_
  6
繝_繧_繝_繧_繧_繝__24
 62
     7
100
AcDbLine
 10
822.9887580914088
 20
705.089113926464
 30
0.0
 11
852.9887580914087
 21
705.089113926464
 31
0.0
  0
LINE
  5
7F
330
60
100
AcDbEntity
  8
_0-1_荳_闊_
  6
繝_繧_繝_繧_繧_繝__24
 62
     7
100
AcDbLine
 10
852.9887580914087
 20
705.089113926464
 30
0.0
 11
852.9887580914087
 21
655.089113926464
 31
0.0
  0
LINE
  5
80
330
60
100
AcDbEntity
  8
_0-1_荳_闊_
  6
繝_繧_繝_繧_繧_繝__24
 62
     7
100
AcDbLine
 10
852.9887580914087
 20
655.089113926464
 30
0.0
 11
822.9887580914088
 21
655.089113926464
 31
0.0
  0
ENDBLK
  5
81
330
60
100
AcDbEntity
  8
0
100
AcDbBlockEnd
  0
BLOCK
  5
82
330
83
100
AcDbEntity
  8
0
100
AcDbBlockBegin
  2
-001-VW_EMPTYBALL
 70
     0
 10
0.0
 20
0.0
 30
0.0
  3
-001-VW_EMPTYBALL
  1

  0
CIRCLE
  5
84
330
83
100
AcDbEntity
  8
_1-3__0-4__0-0_0
  6
Continuous
 62
     7
100
AcDbCircle
 10
0.4999999999999997
 20
0.4999999999999997
 30
0.0
 40
0.4999999999999997
  0
ENDBLK
  5
85
330
83
100
AcDbEntity
  8
0
100
AcDbBlockEnd
  0
BLOCK
  5
86
330
87
100
AcDbEntity
  8
0
100
AcDbBlockBegin
  2
-002-_D2
 70
     0
 10
0.0
 20
0.0
 30
0.0
  3
-002-_D2
  1

  0
LINE
  5
88
330
87
100
AcDbEntity
  8
_0-2_蟇_豕__
  6
Continuous
 62
     7
100
AcDbLine
 10
809.7528502982427
 20
237.0140702139945
 30
0.0
 11
682.752862952107
 21
237.0140702139945
 31
0.0
  0
LINE
  5
89
330
87
100
AcDbEntity
  8
_1-4__0-5__0-2_蟇_豕__0
  6
Continuous
 62
     7
100
AcDbLine
 10
844.7528502982427
 20
737.0140702139945
 30
0.0
 11
682.752862952107
 21
737.0140702139945
 31
0.0
  0
LINE
  5
8A
330
87
100
AcDbEntity
  8
_1-5__0-6__0-2_蟇_豕__0___50__0_0___71_______0___42__1_0____3__txt____4__bigfont_shx____0__ENDTAB____0__EOF__
  6
Continuous
 62
     7
100
AcDbLine
 10
692.752862952107
 20
243.013704003057
 30
0.0
 11
692.752862952107
 21
731.014436424932
 31
0.0
  0
INSERT
  5
8B
330
87
100
AcDbEntity
  8
_1-5__0-6__0-2_蟇_豕__0___50__0_0___71_______0___42__1_0____3__txt____4__bigfont_shx____0__ENDTAB____0__EOF__
100
AcDbBlockReference
  2
-001-VW_EMPTYBALL
 10
692.752862952107
 20
237.0140702139945
 30
0.0
 41
5.9996337890625
 42
5.9996337890625
 50
270.0
  0
INSERT
  5
8C
330
87
100
AcDbEntity
  8
_1-5__0-6__0-2_蟇_豕__0___50__0_0___71_______0___42__1_0____3__txt____4__bigfont_shx____0__ENDTAB____0__EOF__
100
AcDbBlockReference
  2
-001-VW_EMPTYBALL
 10
692.752862952107
 20
737.0140702139945
 30
0.0
 41
5.9996337890625
 42
5.9996337890625
 50
90.0
  0
TEXT
  5
8D
330
87
100
AcDbEntity
  8
_0-2_蟇_豕__
 62
     7
100
AcDbText
 10
687.752862952107
 20
468.736116112432
 30
0.0
 40
24.37060546875
  1
500
 50
90.0
100
AcDbText
  0
POINT
  5
8E
330
87
100
AcDbEntity
  8
_1-6__0-7__0-3_Defpoints
 62
     7
100
AcDbPoint
 10
819.7528502982427
 20
237.0140702139945
 30
0.0
  0
POINT
  5
8F
330
87
100
AcDbEntity
  8
_1-6__0-7__0-3_Defpoints
 62
     7
100
AcDbPoint
 10
854.7528502982427
 20
737.0140702139945
 30
0.0
  0
POINT
  5
90
330
87
100
AcDbEntity
  8
_1-6__0-7__0-3_Defpoints
 62
     7
100
AcDbPoint
 10
692.752862952107
 20
737.0140702139945
 30
0.0
  0
ENDBLK
  5
91
330
87
100
AcDbEntity
  8
0
100
AcDbBlockEnd
  0
BLOCK
  5
92
330
93
100
AcDbEntity
  8
0
100
AcDbBlockBegin
  2
-003-_D3
 70
     0
 10
0.0
 20
0.0
 30
0.0
  3
-003-_D3
  1

  0
LINE
  5
94
330
93
100
AcDbEntity
  8
_0-2_蟇_豕__
  6
Continuous
 62
     7
100
AcDbLine
 10
844.7528502982427
 20
-856.9179103017284
 30
0.0
 11
680.0000000000001
 21
-856.9179103017284
 31
0.0
  0
LINE
  5
95
330
93
100
AcDbEntity
  8
_0-2_蟇_豕__
  6
Continuous
 62
     7
100
AcDbLine
 10
809.7528502982427
 20
237.0140702139945
 30
0.0
 11
680.0
 21
237.0140702139945
 31
0.0
  0
LINE
  5
96
330
93
100
AcDbEntity
  8
_0-2_蟇_豕__
  6
Continuous
 62
     7
100
AcDbLine
 10
690.0000000000001
 20
-850.9182765126659
 30
0.0
 11
690.0
 21
231.014436424932
 31
0.0
  0
INSERT
  5
97
330
93
100
AcDbEntity
  8
_1-7__0-8__0-2_蟇_豕____5__3__100__AcDbSymbolTable___70_______1____0__STYLE____5__10__100__AcDbSymbolTableReco
100
AcDbBlockReference
  2
-001-VW_EMPTYBALL
 10
690.0000000000001
 20
-856.9179103017284
 30
0.0
 41
5.9996337890625
 42
5.9996337890625
 50
270.0
  0
INSERT
  5
98
330
93
100
AcDbEntity
  8
_0-2_蟇_豕__
100
AcDbBlockReference
  2
-001-VW_EMPTYBALL
 10
690.0
 20
237.0140702139945
 30
0.0
 41
5.9996337890625
 42
5.9996337890625
 50
90.0
  0
TEXT
  5
99
330
93
100
AcDbEntity
  8
_1-8__0-9__0-2_蟇_豕______________
 62
     7
100
AcDbText
 10
685.0
 20
-334.3225255126169
 30
0.0
 40
24.37060546875
  1
1094
 50
90.0
100
AcDbText
  0
POINT
  5
9A
330
93
100
AcDbEntity
  8
_1-6__0-7__0-3_Defpoints
 62
     7
100
AcDbPoint
 10
854.7528502982427
 20
-856.9179103017284
 30
0.0
  0
POINT
  5
9B
330
93
100
AcDbEntity
  8
_1-6__0-7__0-3_Defpoints
 62
     7
100
AcDbPoint
 10
819.7528502982427
 20
237.0140702139945
 30
0.0
  0
POINT
  5
9C
330
93
100
AcDbEntity
  8
_1-6__0-7__0-3_Defpoints
 62
     7
100
AcDbPoint
 10
690.0
 20
237.0140702139945
 30
0.0
  0
ENDBLK
  5
9D
330
93
100
AcDbEntity
  8
0
100
AcDbBlockEnd
  0
BLOCK
  5
9E
330
9F
100
AcDbEntity
  8
0
100
AcDbBlockBegin
  2
-004-_D4
 70
     0
 10
0.0
 20
0.0
 30
0.0
  3
-004-_D4
  1

  0
LINE
  5
A0
330
9F
100
AcDbEntity
  8
_0-2_蟇_豕__
  6
Continuous
 62
     7
100
AcDbLine
 10
130.8404071825306
 20
747.0140702140006
 30
0.0
 11
130.8404071825305
 21
939.5334823440919
 31
0.0
  0
LINE
  5
A1
330
9F
100
AcDbEntity
  8
_0-2_蟇_豕__
  6
Continuous
 62
     7
100
AcDbLine
 10
-1434.09157333282
 20
714.8320896986554
 30
0.0
 11
-1434.09157333282
 21
939.5334823440919
 31
0.0
  0
LINE
  5
A2
330
9F
100
AcDbEntity
  8
_0-a__0-2_蟇_豕__ts
  6
Continuous
 62
     7
100
AcDbLine
 10
124.840773393468
 20
929.5334823440919
 30
0.0
 11
-1428.091939543757
 21
929.5334823440919
 31
0.0
  0
INSERT
  5
A3
330
9F
100
AcDbEntity
  8
_0-a__0-2_蟇_豕__ts
100
AcDbBlockReference
  2
-001-VW_EMPTYBALL
 10
130.8404071825305
 20
929.5334823440919
 30
0.0
 41
5.9996337890625
 42
5.9996337890625
  0
INSERT
  5
A4
330
9F
100
AcDbEntity
  8
_0-2_蟇_豕__
100
AcDbBlockReference
  2
-001-VW_EMPTYBALL
 10
-1434.09157333282
 20
929.5334823440919
 30
0.0
 41
5.9996337890625
 42
5.9996337890625
 50
180.0
  0
TEXT
  5
A5
330
9F
100
AcDbEntity
  8
_0-a__0-2_蟇_豕__ts
 62
     7
100
AcDbText
 10
-675.9961885438946
 20
934.5334823440919
 30
0.0
 40
24.37060546875
  1
1565
100
AcDbText
  0
POINT
  5
A6
330
9F
100
AcDbEntity
  8
_1-6__0-7__0-3_Defpoints
 62
     7
100
AcDbPoint
 10
130.8404071825306
 20
737.0140702140006
 30
0.0
  0
POINT
  5
A7
330
9F
100
AcDbEntity
  8
_1-6__0-7__0-3_Defpoints
 62
     7
100
AcDbPoint
 10
-1434.09157333282
 20
704.8320896986554
 30
0.0
  0
POINT
  5
A8
330
9F
100
AcDbEntity
  8
_1-6__0-7__0-3_Defpoints
 62
     7
100
AcDbPoint
 10
-1434.09157333282
 20
929.5334823440919
 30
0.0
  0
ENDBLK
  5
A9
330
9F
100
AcDbEntity
  8
0
100
AcDbBlockEnd
  0
BLOCK
  5
AA
330
AB
100
AcDbEntity
  8
0
100
AcDbBlockBegin
  2
-005-_D5
 70
     0
 10
0.0
 20
0.0
 30
0.0
  3
-005-_D5
  1

  0
LINE
  5
AC
330
AB
100
AcDbEntity
  8
_1-5__0-6__0-2_蟇_豕__0___50__0_0___71_______0___42__1_0____3__txt____4__bigfont_shx____0__ENDTAB____0__EOF__
  6
Continuous
 62
     7
100
AcDbLine
 10
854.7528502982427
 20
732.2640702139945
 30
0.0
 11
854.7528502982427
 21
853.9905723210943
 31
0.0
  0
LINE
  5
AD
330
AB
100
AcDbEntity
  8
_0-a__0-2_蟇_豕__ts
  6
Continuous
 62
     7
100
AcDbLine
 10
824.7528502982431
 20
719.0140702139951
 30
0.0
 11
824.7528502982431
 21
853.9905723210943
 31
0.0
  0
LINE
  5
AE
330
AB
100
AcDbEntity
  8
_0-2_蟇_豕__
  6
Continuous
 62
     7
100
AcDbLine
 10
854.7528502982427
 20
843.9905723210943
 30
0.0
 11
824.7528502982431
 21
843.9905723210943
 31
0.0
  0
LINE
  5
AF
330
AB
100
AcDbEntity
  8
_0-a__0-2_蟇_豕__ts
  6
Continuous
 62
     7
100
AcDbLine
 10
860.7524840873052
 20
843.9905723210943
 30
0.0
 11
866.7521178763677
 21
843.9905723210943
 31
0.0
  0
LINE
  5
B0
330
AB
100
AcDbEntity
  8
_0-a__0-2_蟇_豕__ts
  6
Continuous
 62
     7
100
AcDbLine
 10
818.7532165091806
 20
843.9905723210943
 30
0.0
 11
812.7535827201181
 21
843.9905723210943
 31
0.0
  0
INSERT
  5
B1
330
AB
100
AcDbEntity
  8
_1-8__0-9__0-2_蟇_豕______________
100
AcDbBlockReference
  2
-001-VW_EMPTYBALL
 10
854.7528502982427
 20
843.9905723210943
 30
0.0
 41
5.9996337890625
 42
5.9996337890625
 50
180.0
  0
INSERT
  5
B2
330
AB
100
AcDbEntity
  8
_0-a__0-2_蟇_豕__ts
100
AcDbBlockReference
  2
-001-VW_EMPTYBALL
 10
824.7528502982431
 20
843.9905723210943
 30
0.0
 41
5.9996337890625
 42
5.9996337890625
  0
TEXT
  5
B3
330
AB
100
AcDbEntity
  8
_0-a__0-2_蟇_豕__ts
 62
     7
100
AcDbText
 10
827.567547563868
 20
848.9905723210943
 30
0.0
 40
24.37060546875
  1
30
100
AcDbText
  0
POINT
  5
B4
330
AB
100
AcDbEntity
  8
_1-6__0-7__0-3_Defpoints
 62
     7
100
AcDbPoint
 10
854.7528502982427
 20
722.2640702139945
 30
0.0
  0
POINT
  5
B5
330
AB
100
AcDbEntity
  8
_1-6__0-7__0-3_Defpoints
 62
     7
100
AcDbPoint
 10
824.7528502982431
 20
709.0140702139951
 30
0.0
  0
POINT
  5
B6
330
AB
100
AcDbEntity
  8
_1-6__0-7__0-3_Defpoints
 62
     7
100
AcDbPoint
 10
824.7528502982431
 20
843.9905723210943
 30
0.0
  0
ENDBLK
  5
B7
330
AB
100
AcDbEntity
  8
0
100
AcDbBlockEnd
  0
BLOCK
  5
B8
330
B9
100
AcDbEntity
  8
0
100
AcDbBlockBegin
  2
-006-_D6
 70
     0
 10
0.0
 20
0.0
 30
0.0
  3
-006-_D6
  1

  0
LINE
  5
BA
330
B9
100
AcDbEntity
  8
_0-2_蟇_豕__
  6
Continuous
 62
     7
100
AcDbLine
 10
1239.752850298242
 20
747.0140702139945
 30
0.0
 11
1239.752850298242
 21
853.9905723210939
 31
0.0
  0
LINE
  5
BB
330
B9
100
AcDbEntity
  8
_0-a__0-2_蟇_豕__ts
  6
Continuous
 62
     7
100
AcDbLine
 10
854.7528502982427
 20
732.2640702139945
 30
0.0
 11
854.7528502982427
 21
853.9905723210939
 31
0.0
  0
LINE
  5
BC
330
B9
100
AcDbEntity
  8
_0-a__0-2_蟇_豕__ts
  6
Continuous
 62
     7
100
AcDbLine
 10
1233.75321650918
 20
843.9905723210939
 30
0.0
 11
860.7524840873052
 21
843.9905723210939
 31
0.0
  0
INSERT
  5
BD
330
B9
100
AcDbEntity
  8
_0-a__0-2_蟇_豕__ts
100
AcDbBlockReference
  2
-001-VW_EMPTYBALL
 10
1239.752850298242
 20
843.9905723210939
 30
0.0
 41
5.9996337890625
 42
5.9996337890625
  0
INSERT
  5
BE
330
B9
100
AcDbEntity
  8
_0-2_蟇_豕__
100
AcDbBlockReference
  2
-001-VW_EMPTYBALL
 10
854.7528502982427
 20
843.9905723210939
 30
0.0
 41
5.9996337890625
 42
5.9996337890625
 50
180.0
  0
TEXT
  5
BF
330
B9
100
AcDbEntity
  8
_0-2_蟇_豕__
 62
     7
100
AcDbText
 10
1028.97489619668
 20
848.9905723210939
 30
0.0
 40
24.37060546875
  1
385
100
AcDbText
  0
POINT
  5
C0
330
B9
100
AcDbEntity
  8
_1-6__0-7__0-3_Defpoints
 62
     7
100
AcDbPoint
 10
1239.752850298242
 20
737.0140702139945
 30
0.0
  0
POINT
  5
C1
330
B9
100
AcDbEntity
  8
_1-6__0-7__0-3_Defpoints
 62
     7
100
AcDbPoint
 10
854.7528502982427
 20
722.2640702139945
 30
0.0
  0
POINT
  5
C2
330
B9
100
AcDbEntity
  8
_1-6__0-7__0-3_Defpoints
 62
     7
100
AcDbPoint
 10
854.7528502982427
 20
843.9905723210939
 30
0.0
  0
ENDBLK
  5
C3
330
B9
100
AcDbEntity
  8
0
100
AcDbBlockEnd
  0
BLOCK
  5
C4
330
C5
100
AcDbEntity
  8
0
100
AcDbBlockBegin
  2
-007-_D7
 70
     0
 10
0.0
 20
0.0
 30
0.0
  3
-007-_D7
  1

  0
LINE
  5
C6
330
C5
100
AcDbEntity
  8
_0-2_蟇_豕__
  6
Continuous
 62
     7
100
AcDbLine
 10
1239.752850298242
 20
747.0140702139945
 30
0.0
 11
1239.752850298242
 21
921.5053422235453
 31
0.0
  0
LINE
  5
C7
330
C5
100
AcDbEntity
  8
_0-a__0-2_蟇_豕__ts
  6
Continuous
 62
     7
100
AcDbLine
 10
824.7528502982432
 20
718.0140702139951
 30
0.0
 11
824.7528502982432
 21
921.5053422235453
 31
0.0
  0
LINE
  5
C8
330
C5
100
AcDbEntity
  8
_0-2_蟇_豕__
  6
Continuous
 62
     7
100
AcDbLine
 10
1233.75321650918
 20
911.5053422235453
 30
0.0
 11
830.7524840873057
 21
911.5053422235453
 31
0.0
  0
INSERT
  5
C9
330
C5
100
AcDbEntity
  8
_0-a__0-2_蟇_豕__ts
100
AcDbBlockReference
  2
-001-VW_EMPTYBALL
 10
1239.752850298242
 20
911.5053422235453
 30
0.0
 41
5.9996337890625
 42
5.9996337890625
  0
INSERT
  5
CA
330
C5
100
AcDbEntity
  8
_0-2_蟇_豕__
100
AcDbBlockReference
  2
-001-VW_EMPTYBALL
 10
824.7528502982432
 20
911.5053422235453
 30
0.0
 41
5.9996337890625
 42
5.9996337890625
 50
180.0
  0
TEXT
  5
CB
330
C5
100
AcDbEntity
  8
_0-a__0-2_蟇_豕__ts
 62
     7
100
AcDbText
 10
1013.97489619668
 20
916.5053422235453
 30
0.0
 40
24.37060546875
  1
415
100
AcDbText
  0
POINT
  5
CC
330
C5
100
AcDbEntity
  8
_1-6__0-7__0-3_Defpoints
 62
     7
100
AcDbPoint
 10
1239.752850298242
 20
737.0140702139945
 30
0.0
  0
POINT
  5
CD
330
C5
100
AcDbEntity
  8
_1-6__0-7__0-3_Defpoints
 62
     7
100
AcDbPoint
 10
824.7528502982432
 20
708.0140702139951
 30
0.0
  0
POINT
  5
CE
330
C5
100
AcDbEntity
  8
_1-6__0-7__0-3_Defpoints
 62
     7
100
AcDbPoint
 10
824.7528502982432
 20
911.5053422235453
 30
0.0
  0
ENDBLK
  5
CF
330
C5
100
AcDbEntity
  8
0
100
AcDbBlockEnd
  0
BLOCK
  5
D0
330
D1
100
AcDbEntity
  8
0
100
AcDbBlockBegin
  2
-008-_D8
 70
     0
 10
0.0
 20
0.0
 30
0.0
  3
-008-_D8
  1

  0
LINE
  5
D2
330
D1
100
AcDbEntity
  8
_0-a__0-2_蟇_豕__ts
  6
Continuous
 62
     7
100
AcDbLine
 10
-982.0915733326933
 20
262.8320896985346
 30
0.0
 11
-915.6388029743707
 21
262.8320896985348
 31
0.0
  0
LINE
  5
D3
330
D1
100
AcDbEntity
  8
_0-a__0-2_蟇_豕__ts
  6
Continuous
 62
     7
100
AcDbLine
 10
-982.0915733328193
 20
-799.6679103013444
 30
0.0
 11
-915.6388029743706
 21
-799.6679103013443
 31
0.0
  0
LINE
  5
D4
330
D1
100
AcDbEntity
  8
_0-a__0-2_蟇_豕__ts
  6
Continuous
 62
     7
100
AcDbLine
 10
-925.6388029743707
 20
256.8324559094723
 30
0.0
 11
-925.6388029743706
 21
-793.6682765122818
 31
0.0
  0
INSERT
  5
D5
330
D1
100
AcDbEntity
  8
_0-a__0-2_蟇_豕__ts
100
AcDbBlockReference
  2
-001-VW_EMPTYBALL
 10
-925.6388029743707
 20
262.8320896985348
 30
0.0
 41
5.9996337890625
 42
5.9996337890625
 50
90.0
  0
INSERT
  5
D6
330
D1
100
AcDbEntity
  8
_0-a__0-2_蟇_豕__ts
100
AcDbBlockReference
  2
-001-VW_EMPTYBALL
 10
-925.6388029743706
 20
-799.6679103013443
 30
0.0
 41
5.9996337890625
 42
5.9996337890625
 50
270.0
  0
TEXT
  5
D7
330
D1
100
AcDbEntity
  8
_0-a__0-2_蟇_豕__ts
 62
     7
100
AcDbText
 10
-930.6388029743707
 20
-292.7885157701547
 30
0.0
 40
24.37060546875
  1
1062
 50
90.0
100
AcDbText
  0
POINT
  5
D8
330
D1
100
AcDbEntity
  8
_1-6__0-7__0-3_Defpoints
 62
     7
100
AcDbPoint
 10
-992.0915733326933
 20
262.8320896985346
 30
0.0
  0
POINT
  5
D9
330
D1
100
AcDbEntity
  8
_1-6__0-7__0-3_Defpoints
 62
     7
100
AcDbPoint
 10
-992.0915733328193
 20
-799.6679103013444
 30
0.0
  0
POINT
  5
DA
330
D1
100
AcDbEntity
  8
_1-6__0-7__0-3_Defpoints
 62
     7
100
AcDbPoint
 10
-925.6388029743706
 20
-799.6679103013443
 30
0.0
  0
ENDBLK
  5
DB
330
D1
100
AcDbEntity
  8
0
100
AcDbBlockEnd
  0
BLOCK
  5
DC
330
DD
100
AcDbEntity
  8
0
100
AcDbBlockBegin
  2
-009-_D9
 70
     0
 10
0.0
 20
0.0
 30
0.0
  3
-009-_D9
  1

  0
LINE
  5
DE
330
DD
100
AcDbEntity
  8
_0-a__0-2_蟇_豕__ts
  6
Continuous
 62
     7
100
AcDbLine
 10
-1430.90959281748
 20
718.0140702140006
 30
0.0
 11
-1430.90959281748
 21
856.1136795708783
 31
0.0
  0
LINE
  5
DF
330
DD
100
AcDbEntity
  8
_0-a__0-2_蟇_豕__ts
  6
Continuous
 62
     7
100
AcDbLine
 10
-1434.09157333282
 20
714.8320896986554
 30
0.0
 11
-1434.09157333282
 21
856.1136795708783
 31
0.0
  0
LINE
  5
E0
330
DD
100
AcDbEntity
  8
_0-a__0-2_蟇_豕__ts
  6
Continuous
 62
     7
100
AcDbLine
 10
-1430.90959281748
 20
846.1136795708783
 30
0.0
 11
-1434.09157333282
 21
846.1136795708783
 31
0.0
  0
LINE
  5
E1
330
DD
100
AcDbEntity
  8
_0-2_蟇_豕__
  6
Continuous
 62
     7
100
AcDbLine
 10
-1424.909959028417
 20
846.1136795708783
 30
0.0
 11
-1418.910325239355
 21
846.1136795708783
 31
0.0
  0
LINE
  5
E2
330
DD
100
AcDbEntity
  8
_0-a__0-2_蟇_豕__ts
  6
Continuous
 62
     7
100
AcDbLine
 10
-1440.091207121882
 20
846.1136795708783
 30
0.0
 11
-1446.090840910945
 21
846.1136795708783
 31
0.0
  0
INSERT
  5
E3
330
DD
100
AcDbEntity
  8
_0-a__0-2_蟇_豕__ts
100
AcDbBlockReference
  2
-001-VW_EMPTYBALL
 10
-1430.90959281748
 20
846.1136795708783
 30
0.0
 41
5.9996337890625
 42
5.9996337890625
 50
180.0
  0
INSERT
  5
E4
330
DD
100
AcDbEntity
  8
_0-a__0-2_蟇_豕__ts
100
AcDbBlockReference
  2
-001-VW_EMPTYBALL
 10
-1434.09157333282
 20
846.1136795708783
 30
0.0
 41
5.9996337890625
 42
5.9996337890625
  0
TEXT
  5
E5
330
DD
100
AcDbEntity
  8
_0-a__0-2_蟇_豕__ts
 62
     7
100
AcDbText
 10
-1451.574725919452
 20
854.6446268365033
 30
0.0
 40
24.37060546875
  1
3
100
AcDbText
  0
POINT
  5
E6
330
DD
100
AcDbEntity
  8
_1-6__0-7__0-3_Defpoints
 62
     7
100
AcDbPoint
 10
-1430.90959281748
 20
708.0140702140006
 30
0.0
  0
POINT
  5
E7
330
DD
100
AcDbEntity
  8
_1-6__0-7__0-3_Defpoints
 62
     7
100
AcDbPoint
 10
-1434.09157333282
 20
704.8320896986554
 30
0.0
  0
POINT
  5
E8
330
DD
100
AcDbEntity
  8
_1-6__0-7__0-3_Defpoints
 62
     7
100
AcDbPoint
 10
-1434.09157333282
 20
846.1136795708783
 30
0.0
  0
ENDBLK
  5
E9
330
DD
100
AcDbEntity
  8
0
100
AcDbBlockEnd
  0
BLOCK
  5
EA
330
EB
100
AcDbEntity
  8
0
100
AcDbBlockBegin
  2
-010-_D10
 70
     0
 10
0.0
 20
0.0
 30
0.0
  3
-010-_D10
  1

  0
LINE
  5
EC
330
EB
100
AcDbEntity
  8
_0-a__0-2_蟇_豕__ts
  6
Continuous
 62
     7
100
AcDbLine
 10
73.59040718252014
 20
709.514070213995
 30
0.0
 11
73.59040718252004
 21
856.1136795708783
 31
0.0
  0
LINE
  5
ED
330
EB
100
AcDbEntity
  8
_0-a__0-2_蟇_豕__ts
  6
Continuous
 62
     7
100
AcDbLine
 10
-1430.90959281748
 20
718.0140702140006
 30
0.0
 11
-1430.90959281748
 21
856.1136795708783
 31
0.0
  0
LINE
  5
EE
330
EB
100
AcDbEntity
  8
_0-a__0-2_蟇_豕__ts
  6
Continuous
 62
     7
100
AcDbLine
 10
67.59077339345754
 20
846.1136795708783
 30
0.0
 11
-1424.909959028417
 21
846.1136795708783
 31
0.0
  0
INSERT
  5
EF
330
EB
100
AcDbEntity
  8
_0-a__0-2_蟇_豕__ts
100
AcDbBlockReference
  2
-001-VW_EMPTYBALL
 10
73.59040718252004
 20
846.1136795708783
 30
0.0
 41
5.9996337890625
 42
5.9996337890625
  0
INSERT
  5
F0
330
EB
100
AcDbEntity
  8
_0-a__0-2_蟇_豕__ts
100
AcDbBlockReference
  2
-001-VW_EMPTYBALL
 10
-1430.90959281748
 20
846.1136795708783
 30
0.0
 41
5.9996337890625
 42
5.9996337890625
 50
180.0
  0
TEXT
  5
F1
330
EB
100
AcDbEntity
  8
_0-2_蟇_豕__
 62
     7
100
AcDbText
 10
-715.2155010206048
 20
851.1136795708783
 30
0.0
 40
24.37060546875
  1
1504.5
100
AcDbText
  0
POINT
  5
F2
330
EB
100
AcDbEntity
  8
_1-6__0-7__0-3_Defpoints
 62
     7
100
AcDbPoint
 10
73.59040718252014
 20
699.514070213995
 30
0.0
  0
POINT
  5
F3
330
EB
100
AcDbEntity
  8
_1-6__0-7__0-3_Defpoints
 62
     7
100
AcDbPoint
 10
-1430.90959281748
 20
708.0140702140006
 30
0.0
  0
POINT
  5
F4
330
EB
100
AcDbEntity
  8
_1-6__0-7__0-3_Defpoints
 62
     7
100
AcDbPoint
 10
-1430.90959281748
 20
846.1136795708783
 30
0.0
  0
ENDBLK
  5
F5
330
EB
100
AcDbEntity
  8
0
100
AcDbBlockEnd
  0
BLOCK
  5
F6
330
F7
100
AcDbEntity
  8
0
100
AcDbBlockBegin
  2
-011-_D11
 70
     0
 10
0.0
 20
0.0
 30
0.0
  3
-011-_D11
  1

  0
LINE
  5
F8
330
F7
100
AcDbEntity
  8
_0-a__0-2_蟇_豕__ts
  6
Continuous
 62
     7
100
AcDbLine
 10
818.5028502982427
 20
737.0140702139945
 30
0.0
 11
604.9999999999999
 21
737.0140702139945
 31
0.0
  0
LINE
  5
F9
330
F7
100
AcDbEntity
  8
_0-a__0-2_蟇_豕__ts
  6
Continuous
 62
     7
100
AcDbLine
 10
844.7528502982427
 20
-856.9179103017284
 30
0.0
 11
605.0
 21
-856.9179103017284
 31
0.0
  0
LINE
  5
FA
330
F7
100
AcDbEntity
  8
_0-2_蟇_豕__
  6
Continuous
 62
     7
100
AcDbLine
 10
614.9999999999999
 20
731.014436424932
 30
0.0
 11
615.0
 21
-850.9182765126659
 31
0.0
  0
INSERT
  5
FB
330
F7
100
AcDbEntity
  8
_0-a__0-2_蟇_豕__ts
100
AcDbBlockReference
  2
-001-VW_EMPTYBALL
 10
614.9999999999999
 20
737.0140702139945
 30
0.0
 41
5.9996337890625
 42
5.9996337890625
 50
90.0
  0
INSERT
  5
FC
330
F7
100
AcDbEntity
  8
_0-a__0-2_蟇_豕__ts
100
AcDbBlockReference
  2
-001-VW_EMPTYBALL
 10
615.0
 20
-856.9179103017284
 30
0.0
 41
5.9996337890625
 42
5.9996337890625
 50
270.0
  0
TEXT
  5
FD
330
F7
100
AcDbEntity
  8
_0-2_蟇_豕__
 62
     7
100
AcDbText
 10
610.0
 20
-84.32252551261695
 30
0.0
 40
24.37060546875
  1
1594
 50
90.0
100
AcDbText
  0
POINT
  5
FE
330
F7
100
AcDbEntity
  8
_1-6__0-7__0-3_Defpoints
 62
     7
100
AcDbPoint
 10
828.5028502982427
 20
737.0140702139945
 30
0.0
  0
POINT
  5
FF
330
F7
100
AcDbEntity
  8
_1-6__0-7__0-3_Defpoints
 62
     7
100
AcDbPoint
 10
854.7528502982427
 20
-856.9179103017284
 30
0.0
  0
POINT
  5
100
330
F7
100
AcDbEntity
  8
_1-6__0-7__0-3_Defpoints
 62
     7
100
AcDbPoint
 10
615.0
 20
-856.9179103017284
 30
0.0
  0
ENDBLK
  5
101
330
F7
100
AcDbEntity
  8
0
100
AcDbBlockEnd
  0
BLOCK
  5
102
330
103
100
AcDbEntity
  8
0
100
AcDbBlockBegin
  2
-012-繧_繝_繝_繝__2-1
 70
     0
 10
0.0
 20
0.0
 30
0.0
  3
-012-繧_繝_繝_繝__2-1
  1

  0
LINE
  5
104
330
103
100
AcDbEntity
  8
_0-1_荳_闊_
  6
Continuous
 62
     7
100
AcDbLine
 10
1237.988758091409
 20
-959.842866589259
 30
0.0
 11
1237.988758091409
 21
-659.842866589259
 31
0.0
  0
LINE
  5
105
330
103
100
AcDbEntity
  8
_0-1_荳_闊_
  6
Continuous
 62
     7
100
AcDbLine
 10
1237.988758091409
 20
-659.842866589259
 30
0.0
 11
1537.988758091409
 21
-659.842866589259
 31
0.0
  0
LINE
  5
106
330
103
100
AcDbEntity
  8
_0-1_荳_闊_
  6
Continuous
 62
     7
100
AcDbLine
 10
1537.988758091409
 20
-659.842866589259
 30
0.0
 11
1537.988758091409
 21
-959.842866589259
 31
0.0
  0
LINE
  5
107
330
103
100
AcDbEntity
  8
_0-1_荳_闊_
  6
Continuous
 62
     7
100
AcDbLine
 10
1537.988758091409
 20
-959.842866589259
 30
0.0
 11
1237.988758091409
 21
-959.842866589259
 31
0.0
  0
LINE
  5
108
330
103
100
AcDbEntity
  8
_0-1_荳_闊_
  6
Continuous
 62
     7
100
AcDbLine
 10
1537.988758091408
 20
-984.842866589259
 30
0.0
 11
1537.988758091408
 21
-634.842866589259
 31
0.0
  0
LINE
  5
109
330
103
100
AcDbEntity
  8
_0-1_荳_闊_
  6
Continuous
 62
     7
100
AcDbLine
 10
1537.988758091408
 20
-634.842866589259
 30
0.0
 11
1587.988758091408
 21
-634.842866589259
 31
0.0
  0
LINE
  5
10A
330
103
100
AcDbEntity
  8
_0-1_荳_闊_
  6
Continuous
 62
     7
100
AcDbLine
 10
1587.988758091408
 20
-634.842866589259
 30
0.0
 11
1587.988758091408
 21
-984.842866589259
 31
0.0
  0
LINE
  5
10B
330
103
100
AcDbEntity
  8
_0-1_荳_闊_
  6
Continuous
 62
     7
100
AcDbLine
 10
1587.988758091408
 20
-984.842866589259
 30
0.0
 11
1537.988758091408
 21
-984.842866589259
 31
0.0
  0
LINE
  5
10C
330
103
100
AcDbEntity
  8
_0-1_荳_闊_
  6
Continuous
 62
     7
100
AcDbLine
 10
1587.988758091408
 20
-972.2181556752049
 30
0.0
 11
1537.988758091409
 21
-943.3506422157267
 31
0.0
  0
LINE
  5
10D
330
103
100
AcDbEntity
  8
_0-1_荳_闊_
  6
Continuous
 62
     7
100
AcDbLine
 10
1542.495893185123
 20
-945.9528378753567
 30
0.0
 11
1537.988758091409
 21
-950.4599729690714
 31
0.0
  0
LINE
  5
10E
330
103
100
AcDbEntity
  8
_0-1_荳_闊_
  6
Continuous
 62
     7
100
AcDbLine
 10
1587.988758091408
 20
-965.1088249218598
 30
0.0
 11
1583.481622997693
 21
-969.6159600155748
 31
0.0
  0
LINE
  5
10F
330
103
100
AcDbEntity
  8
_0-1_荳_闊_
  6
Continuous
 62
     7
100
AcDbLine
 10
1587.988758091408
 20
-921.778424787337
 30
0.0
 11
1537.988758091409
 21
-892.9109113278588
 31
0.0
  0
LINE
  5
110
330
103
100
AcDbEntity
  8
_0-1_荳_闊_
  6
Continuous
 62
     7
100
AcDbLine
 10
1542.495893185123
 20
-895.5131069874889
 30
0.0
 11
1537.988758091409
 21
-900.0202420812035
 31
0.0
  0
LINE
  5
111
330
103
100
AcDbEntity
  8
_0-1_荳_闊_
  6
Continuous
 62
     7
100
AcDbLine
 10
1587.988758091408
 20
-914.6690940339919
 30
0.0
 11
1583.481622997693
 21
-919.176229127707
 31
0.0
  0
LINE
  5
112
330
103
100
AcDbEntity
  8
_0-1_荳_闊_
  6
Continuous
 62
     7
100
AcDbLine
 10
1587.988758091408
 20
-871.3386938994691
 30
0.0
 11
1537.988758091409
 21
-842.4711804399909
 31
0.0
  0
LINE
  5
113
330
103
100
AcDbEntity
  8
_0-1_荳_闊_
  6
Continuous
 62
     7
100
AcDbLine
 10
1542.495893185123
 20
-845.073376099621
 30
0.0
 11
1537.988758091409
 21
-849.5805111933356
 31
0.0
  0
LINE
  5
114
330
103
100
AcDbEntity
  8
_0-1_荳_闊_
  6
Continuous
 62
     7
100
AcDbLine
 10
1587.988758091408
 20
-864.229363146124
 30
0.0
 11
1583.481622997693
 21
-868.7364982398391
 31
0.0
  0
LINE
  5
115
330
103
100
AcDbEntity
  8
_0-1_荳_闊_
  6
Continuous
 62
     7
100
AcDbLine
 10
1587.988758091408
 20
-820.8989630116013
 30
0.0
 11
1537.988758091409
 21
-792.031449552123
 31
0.0
  0
LINE
  5
116
330
103
100
AcDbEntity
  8
_0-1_荳_闊_
  6
Continuous
 62
     7
100
AcDbLine
 10
1542.495893185123
 20
-794.6336452117531
 30
0.0
 11
1537.988758091409
 21
-799.1407803054677
 31
0.0
  0
LINE
  5
117
330
103
100
AcDbEntity
  8
_0-1_荳_闊_
  6
Continuous
 62
     7
100
AcDbLine
 10
1587.988758091408
 20
-813.7896322582561
 30
0.0
 11
1583.481622997693
 21
-818.2967673519712
 31
0.0
  0
LINE
  5
118
330
103
100
AcDbEntity
  8
_0-1_荳_闊_
  6
Continuous
 62
     7
100
AcDbLine
 10
1587.988758091408
 20
-770.4592321237334
 30
0.0
 11
1537.988758091409
 21
-741.5917186642552
 31
0.0
  0
LINE
  5
119
330
103
100
AcDbEntity
  8
_0-1_荳_闊_
  6
Continuous
 62
     7
100
AcDbLine
 10
1542.495893185123
 20
-744.1939143238852
 30
0.0
 11
1537.988758091409
 21
-748.7010494175998
 31
0.0
  0
LINE
  5
11A
330
103
100
AcDbEntity
  8
_0-1_荳_闊_
  6
Continuous
 62
     7
100
AcDbLine
 10
1587.988758091408
 20
-763.3499013703882
 30
0.0
 11
1583.481622997693
 21
-767.8570364641033
 31
0.0
  0
LINE
  5
11B
330
103
100
AcDbEntity
  8
_0-1_荳_闊_
  6
Continuous
 62
     7
100
AcDbLine
 10
1587.988758091408
 20
-720.0195012358655
 30
0.0
 11
1537.988758091409
 21
-691.1519877763873
 31
0.0
  0
LINE
  5
11C
330
103
100
AcDbEntity
  8
_0-1_荳_闊_
  6
Continuous
 62
     7
100
AcDbLine
 10
1542.495893185123
 20
-693.7541834360173
 30
0.0
 11
1537.988758091409
 21
-698.2613185297324
 31
0.0
  0
LINE
  5
11D
330
103
100
AcDbEntity
  8
_0-1_荳_闊_
  6
Continuous
 62
     7
100
AcDbLine
 10
1587.988758091408
 20
-712.9101704825208
 30
0.0
 11
1583.481622997693
 21
-717.4173055762354
 31
0.0
  0
LINE
  5
11E
330
103
100
AcDbEntity
  8
_0-1_荳_闊_
  6
Continuous
 62
     7
100
AcDbLine
 10
1587.988758091408
 20
-669.5797703479976
 30
0.0
 11
1537.988758091409
 21
-640.7122568885194
 31
0.0
  0
LINE
  5
11F
330
103
100
AcDbEntity
  8
_0-1_荳_闊_
  6
Continuous
 62
     7
100
AcDbLine
 10
1542.495893185123
 20
-643.3144525481495
 30
0.0
 11
1537.988758091409
 21
-647.8215876418645
 31
0.0
  0
LINE
  5
120
330
103
100
AcDbEntity
  8
_0-1_荳_闊_
  6
Continuous
 62
     7
100
AcDbLine
 10
1587.988758091408
 20
-662.4704395946529
 30
0.0
 11
1583.481622997693
 21
-666.9775746883676
 31
0.0
  0
LINE
  5
121
330
103
100
AcDbEntity
  8
_0-1_荳_闊_
  6
Continuous
 62
     7
100
AcDbLine
 10
1247.904772545579
 20
-659.842866589259
 30
0.0
 11
1538.255318508424
 21
-950.1934125520562
 31
0.0
  0
LINE
  5
122
330
103
100
AcDbEntity
  8
_0-1_荳_闊_
  6
Continuous
 62
     7
100
AcDbLine
 10
1537.988758091408
 20
-968.9534209975451
 30
0.0
 11
1538.255318508424
 21
-969.2199814145603
 31
0.0
  0
LINE
  5
123
330
103
100
AcDbEntity
  8
_0-1_荳_闊_
  6
Continuous
 62
     7
100
AcDbLine
 10
1262.903032745855
 20
-659.842866589259
 30
0.0
 11
1538.255318508424
 21
-935.1951523517824
 31
0.0
  0
LINE
  5
124
330
103
100
AcDbEntity
  8
_0-1_荳_闊_
  6
Continuous
 62
     7
100
AcDbLine
 10
1277.901292946132
 20
-659.842866589259
 30
0.0
 11
1538.255318508424
 21
-920.1968921515087
 31
0.0
  0
ENDBLK
  5
125
330
103
100
AcDbEntity
  8
0
100
AcDbBlockEnd
  0
BLOCK
  5
126
330
127
100
AcDbEntity
  8
0
100
AcDbBlockBegin
  2
-013-_D13
 70
     0
 10
0.0
 20
0.0
 30
0.0
  3
-013-_D13
  1

  0
LINE
  5
128
330
127
100
AcDbEntity
  8
_0-b__0-2_蟇_豕___2-1
  6
Continuous
 62
     7
100
AcDbLine
 10
1249.752850298243
 20
-841.9179103017279
 30
0.0
 11
1340.829714029253
 21
-841.9179103017279
 31
0.0
  0
LINE
  5
129
330
127
100
AcDbEntity
  8
_0-2_蟇_豕__
  6
Continuous
 62
     7
100
AcDbLine
 10
1249.752850298243
 20
-771.9179103017279
 30
0.0
 11
1340.829714029253
 21
-771.9179103017279
 31
0.0
  0
LINE
  5
12A
330
127
100
AcDbEntity
  8
_0-a__0-2_蟇_豕__ts
  6
Continuous
 62
     7
100
AcDbLine
 10
1330.829714029253
 20
-835.9182765126654
 30
0.0
 11
1330.829714029253
 21
-777.9175440907904
 31
0.0
  0
INSERT
  5
12B
330
127
100
AcDbEntity
  8
_0-2_蟇_豕__
100
AcDbBlockReference
  2
-001-VW_EMPTYBALL
 10
1330.829714029253
 20
-841.9179103017279
 30
0.0
 41
5.9996337890625
 42
5.9996337890625
 50
270.0
  0
INSERT
  5
12C
330
127
100
AcDbEntity
  8
_0-b__0-2_蟇_豕___2-1
100
AcDbBlockReference
  2
-001-VW_EMPTYBALL
 10
1330.829714029253
 20
-771.9179103017279
 30
0.0
 41
5.9996337890625
 42
5.9996337890625
 50
90.0
  0
TEXT
  5
12D
330
127
100
AcDbEntity
  8
_0-b__0-2_蟇_豕___2-1
 62
     7
100
AcDbText
 10
1325.829714029253
 20
-819.1032130361029
 30
0.0
 40
24.37060546875
  1
70
 50
90.0
100
AcDbText
  0
POINT
  5
12E
330
127
100
AcDbEntity
  8
_1-6__0-7__0-3_Defpoints
 62
     7
100
AcDbPoint
 10
1239.752850298243
 20
-841.9179103017279
 30
0.0
  0
POINT
  5
12F
330
127
100
AcDbEntity
  8
_1-6__0-7__0-3_Defpoints
 62
     7
100
AcDbPoint
 10
1239.752850298243
 20
-771.9179103017279
 30
0.0
  0
POINT
  5
130
330
127
100
AcDbEntity
  8
_1-6__0-7__0-3_Defpoints
 62
     7
100
AcDbPoint
 10
1330.829714029253
 20
-771.9179103017279
 30
0.0
  0
ENDBLK
  5
131
330
127
100
AcDbEntity
  8
0
100
AcDbBlockEnd
  0
BLOCK
  5
132
330
133
100
AcDbEntity
  8
0
100
AcDbBlockBegin
  2
-014-_D15
 70
     0
 10
0.0
 20
0.0
 30
0.0
  3
-014-_D15
  1

  0
LINE
  5
134
330
133
100
AcDbEntity
  8
_0-a__0-2_蟇_豕__ts
  6
Continuous
 62
     7
100
AcDbLine
 10
1539.752850298242
 20
824.8280850852987
 30
0.0
 11
1539.752850298242
 21
921.5053422235453
 31
0.0
  0
LINE
  5
135
330
133
100
AcDbEntity
  8
_0-2_蟇_豕__
  6
Continuous
 62
     7
100
AcDbLine
 10
1239.752850298242
 20
810.5023212675444
 30
0.0
 11
1239.752850298242
 21
921.5053422235453
 31
0.0
  0
LINE
  5
136
330
133
100
AcDbEntity
  8
_1-9__0-c__0-2_蟇_豕___3-1
  6
Continuous
 62
     7
100
AcDbLine
 10
1533.75321650918
 20
911.5053422235453
 30
0.0
 11
1245.752484087305
 21
911.5053422235453
 31
0.0
  0
INSERT
  5
137
330
133
100
AcDbEntity
  8
_0-a__0-2_蟇_豕__ts
100
AcDbBlockReference
  2
-001-VW_EMPTYBALL
 10
1539.752850298242
 20
911.5053422235453
 30
0.0
 41
5.9996337890625
 42
5.9996337890625
  0
INSERT
  5
138
330
133
100
AcDbEntity
  8
_0-2_蟇_豕__
100
AcDbBlockReference
  2
-001-VW_EMPTYBALL
 10
1239.752850298242
 20
911.5053422235453
 30
0.0
 41
5.9996337890625
 42
5.9996337890625
 50
180.0
  0
TEXT
  5
139
330
133
100
AcDbEntity
  8
_0-a__0-2_蟇_豕__ts
 62
     7
100
AcDbText
 10
1371.47489619668
 20
916.5053422235453
 30
0.0
 40
24.37060546875
  1
300
100
AcDbText
  0
POINT
  5
13A
330
133
100
AcDbEntity
  8
_1-6__0-7__0-3_Defpoints
 62
     7
100
AcDbPoint
 10
1539.752850298242
 20
814.8280850852987
 30
0.0
  0
POINT
  5
13B
330
133
100
AcDbEntity
  8
_1-6__0-7__0-3_Defpoints
 62
     7
100
AcDbPoint
 10
1239.752850298242
 20
800.5023212675444
 30
0.0
  0
POINT
  5
13C
330
133
100
AcDbEntity
  8
_1-6__0-7__0-3_Defpoints
 62
     7
100
AcDbPoint
 10
1239.752850298242
 20
911.5053422235453
 30
0.0
  0
ENDBLK
  5
13D
330
133
100
AcDbEntity
  8
0
100
AcDbBlockEnd
  0
BLOCK
  5
13E
330
13F
100
AcDbEntity
  8
0
100
AcDbBlockBegin
  2
-015-_D16
 70
     0
 10
0.0
 20
0.0
 30
0.0
  3
-015-_D16
  1

  0
LINE
  5
140
330
13F
100
AcDbEntity
  8
_0-a__0-2_蟇_豕__ts
  6
Continuous
 62
     7
100
AcDbLine
 10
1589.752850298242
 20
824.8280850852987
 30
0.0
 11
1589.752850298242
 21
921.5053422235453
 31
0.0
  0
LINE
  5
141
330
13F
100
AcDbEntity
  8
_0-a__0-2_蟇_豕__ts
  6
Continuous
 62
     7
100
AcDbLine
 10
1539.752850298242
 20
824.8280850852987
 30
0.0
 11
1539.752850298242
 21
921.5053422235453
 31
0.0
  0
LINE
  5
142
330
13F
100
AcDbEntity
  8
_0-a__0-2_蟇_豕__ts
  6
Continuous
 62
     7
100
AcDbLine
 10
1583.75321650918
 20
911.5053422235453
 30
0.0
 11
1545.752484087305
 21
911.5053422235453
 31
0.0
  0
INSERT
  5
143
330
13F
100
AcDbEntity
  8
_0-a__0-2_蟇_豕__ts
100
AcDbBlockReference
  2
-001-VW_EMPTYBALL
 10
1589.752850298242
 20
911.5053422235453
 30
0.0
 41
5.9996337890625
 42
5.9996337890625
  0
INSERT
  5
144
330
13F
100
AcDbEntity
  8
_0-a__0-2_蟇_豕__ts
100
AcDbBlockReference
  2
-001-VW_EMPTYBALL
 10
1539.752850298242
 20
911.5053422235453
 30
0.0
 41
5.9996337890625
 42
5.9996337890625
 50
180.0
  0
TEXT
  5
145
330
13F
100
AcDbEntity
  8
_0-a__0-2_蟇_豕__ts
 62
     7
100
AcDbText
 10
1552.567547563867
 20
916.5053422235453
 30
0.0
 40
24.37060546875
  1
50
100
AcDbText
  0
POINT
  5
146
330
13F
100
AcDbEntity
  8
_1-6__0-7__0-3_Defpoints
 62
     7
100
AcDbPoint
 10
1589.752850298242
 20
814.8280850852987
 30
0.0
  0
POINT
  5
147
330
13F
100
AcDbEntity
  8
_1-6__0-7__0-3_Defpoints
 62
     7
100
AcDbPoint
 10
1539.752850298242
 20
814.8280850852987
 30
0.0
  0
POINT
  5
148
330
13F
100
AcDbEntity
  8
_1-6__0-7__0-3_Defpoints
 62
     7
100
AcDbPoint
 10
1539.752850298242
 20
911.5053422235453
 30
0.0
  0
ENDBLK
  5
149
330
13F
100
AcDbEntity
  8
0
100
AcDbBlockEnd
  0
BLOCK
  5
14A
330
14B
100
AcDbEntity
  8
0
100
AcDbBlockBegin
  2
-016-_D17
 70
     0
 10
0.0
 20
0.0
 30
0.0
  3
-016-_D17
  1

  0
LINE
  5
14C
330
14B
100
AcDbEntity
  8
_0-2_蟇_豕__
  6
Continuous
 62
     7
100
AcDbLine
 10
1208.485072520465
 20
687.014070213995
 30
0.0
 11
1170.110673543418
 21
687.014070213995
 31
0.0
  0
LINE
  5
14D
330
14B
100
AcDbEntity
  8
_0-a__0-2_蟇_豕__ts
  6
Continuous
 62
     7
100
AcDbLine
 10
1208.485072520465
 20
287.0140702139948
 30
0.0
 11
1170.110673543418
 21
287.0140702139948
 31
0.0
  0
LINE
  5
14E
330
14B
100
AcDbEntity
  8
_0-a__0-2_蟇_豕__ts
  6
Continuous
 62
     7
100
AcDbLine
 10
1180.110673543418
 20
681.0144364249325
 30
0.0
 11
1180.110673543418
 21
293.0137040030573
 31
0.0
  0
INSERT
  5
14F
330
14B
100
AcDbEntity
  8
_0-a__0-2_蟇_豕__ts
100
AcDbBlockReference
  2
-001-VW_EMPTYBALL
 10
1180.110673543418
 20
687.014070213995
 30
0.0
 41
5.9996337890625
 42
5.9996337890625
 50
90.0
  0
INSERT
  5
150
330
14B
100
AcDbEntity
  8
_0-a__0-2_蟇_豕__ts
100
AcDbBlockReference
  2
-001-VW_EMPTYBALL
 10
1180.110673543418
 20
287.0140702139948
 30
0.0
 41
5.9996337890625
 42
5.9996337890625
 50
270.0
  0
TEXT
  5
151
330
14B
100
AcDbEntity
  8
_0-a__0-2_蟇_豕__ts
 62
     7
100
AcDbText
 10
1175.110673543418
 20
468.7361161124323
 30
0.0
 40
24.37060546875
  1
400
 50
90.0
100
AcDbText
  0
POINT
  5
152
330
14B
100
AcDbEntity
  8
_1-6__0-7__0-3_Defpoints
 62
     7
100
AcDbPoint
 10
1218.485072520465
 20
687.014070213995
 30
0.0
  0
POINT
  5
153
330
14B
100
AcDbEntity
  8
_1-6__0-7__0-3_Defpoints
 62
     7
100
AcDbPoint
 10
1218.485072520465
 20
287.0140702139948
 30
0.0
  0
POINT
  5
154
330
14B
100
AcDbEntity
  8
_1-6__0-7__0-3_Defpoints
 62
     7
100
AcDbPoint
 10
1180.110673543418
 20
287.0140702139948
 30
0.0
  0
ENDBLK
  5
155
330
14B
100
AcDbEntity
  8
0
100
AcDbBlockEnd
  0
BLOCK
  5
156
330
157
100
AcDbEntity
  8
0
100
AcDbBlockBegin
  2
-017-繧_繝_繝_繝__4-1
 70
     0
 10
0.0
 20
0.0
 30
0.0
  3
-017-繧_繝_繝_繝__4-1
  1

  0
LINE
  5
158
330
157
100
AcDbEntity
  8
_0-1_荳_闊_
  6
Continuous
 62
     7
100
AcDbLine
 10
1237.988758091408
 20
628.021464265907
 30
0.0
 11
1237.988758091408
 21
334.5287338444131
 31
0.0
  0
LINE
  5
159
330
157
100
AcDbEntity
  8
_0-1_荳_闊_
  6
Continuous
 62
     7
100
AcDbLine
 10
1237.988758091408
 20
307.2711203763469
 30
0.0
 11
1237.988758091408
 21
334.5287338444131
 31
0.0
  0
LINE
  5
15A
330
157
100
AcDbEntity
  8
_0-1_荳_闊_
  6
Continuous
 62
     7
100
AcDbLine
 10
1237.988758091408
 20
184.0891139264639
 30
0.0
 11
1237.988758091408
 21
784.0891139264638
 31
0.0
  0
LINE
  5
15B
330
157
100
AcDbEntity
  8
_0-1_荳_闊_
  6
Continuous
 62
     7
100
AcDbLine
 10
1237.988758091408
 20
784.0891139264638
 30
0.0
 11
1537.988758091408
 21
784.0891139264638
 31
0.0
  0
LINE
  5
15C
330
157
100
AcDbEntity
  8
_0-1_荳_闊_
  6
Continuous
 62
     7
100
AcDbLine
 10
1537.988758091408
 20
784.0891139264638
 30
0.0
 11
1537.988758091408
 21
184.0891139264639
 31
0.0
  0
LINE
  5
15D
330
157
100
AcDbEntity
  8
_0-1_荳_闊_
  6
Continuous
 62
     7
100
AcDbLine
 10
1537.988758091408
 20
184.0891139264639
 30
0.0
 11
1237.988758091408
 21
184.0891139264639
 31
0.0
  0
LINE
  5
15E
330
157
100
AcDbEntity
  8
_0-1_荳_闊_
  6
Continuous
 62
     7
100
AcDbLine
 10
1537.988758091408
 20
159.0891139264639
 30
0.0
 11
1537.988758091408
 21
809.0891139264638
 31
0.0
  0
LINE
  5
15F
330
157
100
AcDbEntity
  8
_0-1_荳_闊_
  6
Continuous
 62
     7
100
AcDbLine
 10
1537.988758091408
 20
809.0891139264638
 30
0.0
 11
1587.988758091408
 21
809.0891139264638
 31
0.0
  0
LINE
  5
160
330
157
100
AcDbEntity
  8
_0-1_荳_闊_
  6
Continuous
 62
     7
100
AcDbLine
 10
1587.988758091408
 20
809.0891139264638
 30
0.0
 11
1587.988758091408
 21
159.0891139264639
 31
0.0
  0
LINE
  5
161
330
157
100
AcDbEntity
  8
_0-1_荳_闊_
  6
Continuous
 62
     7
100
AcDbLine
 10
1587.988758091408
 20
159.0891139264639
 30
0.0
 11
1537.988758091408
 21
159.0891139264639
 31
0.0
  0
LINE
  5
162
330
157
100
AcDbEntity
  8
_0-1_荳_闊_
  6
Continuous
 62
     7
100
AcDbLine
 10
1587.988758091408
 20
169.6553571967248
 30
0.0
 11
1537.988758091408
 21
198.522870656203
 31
0.0
  0
LINE
  5
163
330
157
100
AcDbEntity
  8
_0-1_荳_闊_
  6
Continuous
 62
     7
100
AcDbLine
 10
1542.495893185123
 20
195.9206749965729
 30
0.0
 11
1537.988758091408
 21
191.4135399028583
 31
0.0
  0
LINE
  5
164
330
157
100
AcDbEntity
  8
_0-1_荳_闊_
  6
Continuous
 62
     7
100
AcDbLine
 10
1587.988758091408
 20
176.7646879500699
 30
0.0
 11
1583.481622997693
 21
172.2575528563548
 31
0.0
  0
LINE
  5
165
330
157
100
AcDbEntity
  8
_0-1_荳_闊_
  6
Continuous
 62
     7
100
AcDbLine
 10
1587.988758091408
 20
220.0950880845926
 30
0.0
 11
1537.988758091408
 21
248.9626015440709
 31
0.0
  0
LINE
  5
166
330
157
100
AcDbEntity
  8
_0-1_荳_闊_
  6
Continuous
 62
     7
100
AcDbLine
 10
1542.495893185123
 20
246.3604058844408
 30
0.0
 11
1537.988758091408
 21
241.8532707907262
 31
0.0
  0
LINE
  5
167
330
157
100
AcDbEntity
  8
_0-1_荳_闊_
  6
Continuous
 62
     7
100
AcDbLine
 10
1587.988758091408
 20
227.2044188379378
 30
0.0
 11
1583.481622997693
 21
222.6972837442227
 31
0.0
  0
LINE
  5
168
330
157
100
AcDbEntity
  8
_0-1_荳_闊_
  6
Continuous
 62
     7
100
AcDbLine
 10
1587.988758091408
 20
270.5348189724605
 30
0.0
 11
1537.988758091408
 21
299.4023324319388
 31
0.0
  0
LINE
  5
169
330
157
100
AcDbEntity
  8
_0-1_荳_闊_
  6
Continuous
 62
     7
100
AcDbLine
 10
1542.495893185123
 20
296.8001367723087
 30
0.0
 11
1537.988758091408
 21
292.2930016785941
 31
0.0
  0
LINE
  5
16A
330
157
100
AcDbEntity
  8
_0-1_荳_闊_
  6
Continuous
 62
     7
100
AcDbLine
 10
1587.988758091408
 20
277.6441497258057
 30
0.0
 11
1583.481622997693
 21
273.1370146320906
 31
0.0
  0
LINE
  5
16B
330
157
100
AcDbEntity
  8
_0-1_荳_闊_
  6
Continuous
 62
     7
100
AcDbLine
 10
1587.988758091408
 20
320.9745498603289
 30
0.0
 11
1537.988758091408
 21
349.8420633198066
 31
0.0
  0
LINE
  5
16C
330
157
100
AcDbEntity
  8
_0-1_荳_闊_
  6
Continuous
 62
     7
100
AcDbLine
 10
1542.495893185123
 20
347.239867660177
 30
0.0
 11
1537.988758091408
 21
342.7327325664619
 31
0.0
  0
LINE
  5
16D
330
157
100
AcDbEntity
  8
_0-1_荳_闊_
  6
Continuous
 62
     7
100
AcDbLine
 10
1587.988758091408
 20
328.0838806136736
 30
0.0
 11
1583.481622997693
 21
323.5767455199585
 31
0.0
  0
LINE
  5
16E
330
157
100
AcDbEntity
  8
_0-1_荳_闊_
  6
Continuous
 62
     7
100
AcDbLine
 10
1587.988758091408
 20
371.4142807481967
 30
0.0
 11
1537.988758091408
 21
400.2817942076745
 31
0.0
  0
LINE
  5
16F
330
157
100
AcDbEntity
  8
_0-1_荳_闊_
  6
Continuous
 62
     7
100
AcDbLine
 10
1542.495893185123
 20
397.6795985480449
 30
0.0
 11
1537.988758091408
 21
393.1724634543298
 31
0.0
  0
LINE
  5
170
330
157
100
AcDbEntity
  8
_0-1_荳_闊_
  6
Continuous
 62
     7
100
AcDbLine
 10
1587.988758091408
 20
378.5236115015414
 30
0.0
 11
1583.481622997693
 21
374.0164764078264
 31
0.0
  0
LINE
  5
171
330
157
100
AcDbEntity
  8
_0-1_荳_闊_
  6
Continuous
 62
     7
100
AcDbLine
 10
1587.988758091408
 20
421.8540116360647
 30
0.0
 11
1537.988758091408
 21
450.7215250955422
 31
0.0
  0
LINE
  5
172
330
157
100
AcDbEntity
  8
_0-1_荳_闊_
  6
Continuous
 62
     7
100
AcDbLine
 10
1542.495893185123
 20
448.1193294359117
 30
0.0
 11
1537.988758091408
 21
443.6121943421975
 31
0.0
  0
LINE
  5
173
330
157
100
AcDbEntity
  8
_0-1_荳_闊_
  6
Continuous
 62
     7
100
AcDbLine
 10
1587.988758091408
 20
428.9633423894091
 30
0.0
 11
1583.481622997693
 21
424.4562072956943
 31
0.0
  0
LINE
  5
174
330
157
100
AcDbEntity
  8
_0-1_荳_闊_
  6
Continuous
 62
     7
100
AcDbLine
 10
1587.988758091408
 20
472.2937425239314
 30
0.0
 11
1537.988758091408
 21
501.1612559834101
 31
0.0
  0
LINE
  5
175
330
157
100
AcDbEntity
  8
_0-1_荳_闊_
  6
Continuous
 62
     7
100
AcDbLine
 10
1542.495893185123
 20
498.5590603237796
 30
0.0
 11
1537.988758091408
 21
494.0519252300654
 31
0.0
  0
LINE
  5
176
330
157
100
AcDbEntity
  8
_0-1_荳_闊_
  6
Continuous
 62
     7
100
AcDbLine
 10
1587.988758091408
 20
479.403073277277
 30
0.0
 11
1583.481622997693
 21
474.895938183562
 31
0.0
  0
LINE
  5
177
330
157
100
AcDbEntity
  8
_0-1_荳_闊_
  6
Continuous
 62
     7
100
AcDbLine
 10
1237.988758091408
 20
644.0051283807301
 30
0.0
 11
1538.255318508423
 21
343.7385679636666
 31
0.0
  0
LINE
  5
178
330
157
100
AcDbEntity
  8
_0-1_荳_闊_
  6
Continuous
 62
     7
100
AcDbLine
 10
1237.988758091408
 20
634.4918439493816
 30
0.0
 11
1538.255318508423
 21
334.2252835324146
 31
0.0
  0
LINE
  5
179
330
157
100
AcDbEntity
  8
_0-1_荳_闊_
  6
Continuous
 62
     7
100
AcDbLine
 10
1237.988758091408
 20
624.9785595181296
 30
0.0
 11
1538.255318508423
 21
324.7119991011626
 31
0.0
  0
LINE
  5
17A
330
157
100
AcDbEntity
  8
_0-1_荳_闊_
  6
Continuous
 62
     7
100
AcDbLine
 10
1537.988758091408
 20
172.9200918743846
 30
0.0
 11
1538.255318508423
 21
172.6535314573694
 31
0.0
  0
LINE
  5
17B
330
157
100
AcDbEntity
  8
_0-1_荳_闊_
  6
Continuous
 62
     7
100
AcDbLine
 10
1587.988758091408
 20
518.28591324448
 30
0.0
 11
1537.988758091408
 21
547.1534267039577
 31
0.0
  0
LINE
  5
17C
330
157
100
AcDbEntity
  8
_0-1_荳_闊_
  6
Continuous
 62
     7
100
AcDbLine
 10
1542.495893185123
 20
544.5512310443281
 30
0.0
 11
1537.988758091408
 21
540.044095950613
 31
0.0
  0
LINE
  5
17D
330
157
100
AcDbEntity
  8
_0-1_荳_闊_
  6
Continuous
 62
     7
100
AcDbLine
 10
1587.988758091408
 20
525.3952439978247
 30
0.0
 11
1583.481622997693
 21
520.8881089041096
 31
0.0
  0
LINE
  5
17E
330
157
100
AcDbEntity
  8
_0-1_荳_闊_
  6
Continuous
 62
     7
100
AcDbLine
 10
1587.988758091408
 20
568.7256441323478
 30
0.0
 11
1537.988758091408
 21
597.5931575918256
 31
0.0
  0
LINE
  5
17F
330
157
100
AcDbEntity
  8
_0-1_荳_闊_
  6
Continuous
 62
     7
100
AcDbLine
 10
1542.495893185123
 20
594.990961932196
 30
0.0
 11
1537.988758091408
 21
590.4838268384809
 31
0.0
  0
LINE
  5
180
330
157
100
AcDbEntity
  8
_0-1_荳_闊_
  6
Continuous
 62
     7
100
AcDbLine
 10
1587.988758091408
 20
575.8349748856925
 30
0.0
 11
1583.481622997693
 21
571.3278397919775
 31
0.0
  0
LINE
  5
181
330
157
100
AcDbEntity
  8
_0-1_荳_闊_
  6
Continuous
 62
     7
100
AcDbLine
 10
1587.988758091408
 20
619.1653750202157
 30
0.0
 11
1537.988758091408
 21
648.0328884796935
 31
0.0
  0
LINE
  5
182
330
157
100
AcDbEntity
  8
_0-1_荳_闊_
  6
Continuous
 62
     7
100
AcDbLine
 10
1542.495893185123
 20
645.4306928200639
 30
0.0
 11
1537.988758091408
 21
640.9235577263488
 31
0.0
  0
LINE
  5
183
330
157
100
AcDbEntity
  8
_0-1_荳_闊_
  6
Continuous
 62
     7
100
AcDbLine
 10
1587.988758091408
 20
626.2747057735604
 30
0.0
 11
1583.481622997693
 21
621.7675706798453
 31
0.0
  0
LINE
  5
184
330
157
100
AcDbEntity
  8
_0-1_荳_闊_
  6
Continuous
 62
     7
100
AcDbLine
 10
1537.988758091408
 20
521.5506479221393
 30
0.0
 11
1538.255318508423
 21
521.2840875051241
 31
0.0
  0
LINE
  5
185
330
157
100
AcDbEntity
  8
_0-1_荳_闊_
  6
Continuous
 62
     7
100
AcDbLine
 10
1587.988758091408
 20
666.3538567125901
 30
0.0
 11
1537.988758091408
 21
695.2213701720688
 31
0.0
  0
LINE
  5
186
330
157
100
AcDbEntity
  8
_0-1_荳_闊_
  6
Continuous
 62
     7
100
AcDbLine
 10
1542.495893185123
 20
692.6191745124382
 30
0.0
 11
1537.988758091408
 21
688.1120394187241
 31
0.0
  0
LINE
  5
187
330
157
100
AcDbEntity
  8
_0-1_荳_闊_
  6
Continuous
 62
     7
100
AcDbLine
 10
1587.988758091408
 20
673.4631874659357
 30
0.0
 11
1583.481622997693
 21
668.9560523722206
 31
0.0
  0
LINE
  5
188
330
157
100
AcDbEntity
  8
_0-1_荳_闊_
  6
Continuous
 62
     7
100
AcDbLine
 10
1587.988758091408
 20
712.3460274331386
 30
0.0
 11
1537.988758091408
 21
741.2135408926164
 31
0.0
  0
LINE
  5
189
330
157
100
AcDbEntity
  8
_0-1_荳_闊_
  6
Continuous
 62
     7
100
AcDbLine
 10
1542.495893185123
 20
738.6113452329868
 30
0.0
 11
1537.988758091408
 21
734.1042101392717
 31
0.0
  0
LINE
  5
18A
330
157
100
AcDbEntity
  8
_0-1_荳_闊_
  6
Continuous
 62
     7
100
AcDbLine
 10
1587.988758091408
 20
719.4553581864833
 30
0.0
 11
1583.481622997693
 21
714.9482230927682
 31
0.0
  0
LINE
  5
18B
330
157
100
AcDbEntity
  8
_0-1_荳_闊_
  6
Continuous
 62
     7
100
AcDbLine
 10
1587.988758091408
 20
762.7857583210065
 30
0.0
 11
1537.988758091408
 21
791.6532717804843
 31
0.0
  0
LINE
  5
18C
330
157
100
AcDbEntity
  8
_0-1_荳_闊_
  6
Continuous
 62
     7
100
AcDbLine
 10
1542.495893185123
 20
789.0510761208546
 30
0.0
 11
1537.988758091408
 21
784.5439410271396
 31
0.0
  0
LINE
  5
18D
330
157
100
AcDbEntity
  8
_0-1_荳_闊_
  6
Continuous
 62
     7
100
AcDbLine
 10
1587.988758091408
 20
769.8950890743512
 30
0.0
 11
1583.481622997693
 21
765.3879539806361
 31
0.0
  0
LINE
  5
18E
330
157
100
AcDbEntity
  8
_0-1_荳_闊_
  6
Continuous
 62
     7
100
AcDbLine
 10
1537.988758091408
 20
715.610762110798
 30
0.0
 11
1538.255318508423
 21
715.3442016937828
 31
0.0
  0
ENDBLK
  5
18F
330
157
100
AcDbEntity
  8
0
100
AcDbBlockEnd
  0
BLOCK
  5
190
330
191
100
AcDbEntity
  8
0
100
AcDbBlockBegin
  2
-018-_D19
 70
     0
 10
0.0
 20
0.0
 30
0.0
  3
-018-_D19
  1

  0
LINE
  5
192
330
191
100
AcDbEntity
  8
_0-a__0-2_蟇_豕__ts
  6
Continuous
 62
     7
100
AcDbLine
 10
1549.752850298243
 20
-656.9179103017279
 30
0.0
 11
1711.436888334181
 21
-656.9179103017279
 31
0.0
  0
LINE
  5
193
330
191
100
AcDbEntity
  8
_0-a__0-2_蟇_豕__ts
  6
Continuous
 62
     7
100
AcDbLine
 10
1549.752850298243
 20
-956.9179103017279
 30
0.0
 11
1711.436888334181
 21
-956.9179103017279
 31
0.0
  0
LINE
  5
194
330
191
100
AcDbEntity
  8
_0-a__0-2_蟇_豕__ts
  6
Continuous
 62
     7
100
AcDbLine
 10
1701.436888334181
 20
-662.9175440907904
 30
0.0
 11
1701.436888334181
 21
-950.9182765126654
 31
0.0
  0
INSERT
  5
195
330
191
100
AcDbEntity
  8
_1-9__0-c__0-2_蟇_豕___3-1
100
AcDbBlockReference
  2
-001-VW_EMPTYBALL
 10
1701.436888334181
 20
-656.9179103017279
 30
0.0
 41
5.9996337890625
 42
5.9996337890625
 50
90.0
  0
INSERT
  5
196
330
191
100
AcDbEntity
  8
_1-9__0-c__0-2_蟇_豕___3-1
100
AcDbBlockReference
  2
-001-VW_EMPTYBALL
 10
1701.436888334181
 20
-956.9179103017279
 30
0.0
 41
5.9996337890625
 42
5.9996337890625
 50
270.0
  0
TEXT
  5
197
330
191
100
AcDbEntity
  8
_0-a__0-2_蟇_豕__ts
 62
     7
100
AcDbText
 10
1696.436888334181
 20
-825.1958644032904
 30
0.0
 40
24.37060546875
  1
300
 50
90.0
100
AcDbText
  0
POINT
  5
198
330
191
100
AcDbEntity
  8
_1-6__0-7__0-3_Defpoints
 62
     7
100
AcDbPoint
 10
1539.752850298243
 20
-656.9179103017279
 30
0.0
  0
POINT
  5
199
330
191
100
AcDbEntity
  8
_1-6__0-7__0-3_Defpoints
 62
     7
100
AcDbPoint
 10
1539.752850298243
 20
-956.9179103017279
 30
0.0
  0
POINT
  5
19A
330
191
100
AcDbEntity
  8
_1-6__0-7__0-3_Defpoints
 62
     7
100
AcDbPoint
 10
1701.436888334181
 20
-956.9179103017279
 30
0.0
  0
ENDBLK
  5
19B
330
191
100
AcDbEntity
  8
0
100
AcDbBlockEnd
  0
BLOCK
  5
19C
330
19D
100
AcDbEntity
  8
0
100
AcDbBlockBegin
  2
-019-_D20
 70
     0
 10
0.0
 20
0.0
 30
0.0
  3
-019-_D20
  1

  0
LINE
  5
19E
330
19D
100
AcDbEntity
  8
_0-a__0-2_蟇_豕__ts
  6
Continuous
 62
     7
100
AcDbLine
 10
1549.752850298242
 20
787.014070213995
 30
0.0
 11
1711.436888334181
 21
787.014070213995
 31
0.0
  0
LINE
  5
19F
330
19D
100
AcDbEntity
  8
_0-a__0-2_蟇_豕__ts
  6
Continuous
 62
     7
100
AcDbLine
 10
1549.752850298242
 20
187.0140702139949
 30
0.0
 11
1711.436888334181
 21
187.0140702139949
 31
0.0
  0
LINE
  5
1A0
330
19D
100
AcDbEntity
  8
_0-a__0-2_蟇_豕__ts
  6
Continuous
 62
     7
100
AcDbLine
 10
1701.436888334181
 20
781.0144364249325
 30
0.0
 11
1701.436888334181
 21
193.0137040030574
 31
0.0
  0
INSERT
  5
1A1
330
19D
100
AcDbEntity
  8
_0-2_蟇_豕__
100
AcDbBlockReference
  2
-001-VW_EMPTYBALL
 10
1701.436888334181
 20
787.014070213995
 30
0.0
 41
5.9996337890625
 42
5.9996337890625
 50
90.0
  0
INSERT
  5
1A2
330
19D
100
AcDbEntity
  8
_0-2_蟇_豕__
100
AcDbBlockReference
  2
-001-VW_EMPTYBALL
 10
1701.436888334181
 20
187.0140702139949
 30
0.0
 41
5.9996337890625
 42
5.9996337890625
 50
270.0
  0
TEXT
  5
1A3
330
19D
100
AcDbEntity
  8
_0-a__0-2_蟇_豕__ts
 62
     7
100
AcDbText
 10
1696.436888334181
 20
468.7361161124325
 30
0.0
 40
24.37060546875
  1
600
 50
90.0
100
AcDbText
  0
POINT
  5
1A4
330
19D
100
AcDbEntity
  8
_1-6__0-7__0-3_Defpoints
 62
     7
100
AcDbPoint
 10
1539.752850298242
 20
787.014070213995
 30
0.0
  0
POINT
  5
1A5
330
19D
100
AcDbEntity
  8
_1-6__0-7__0-3_Defpoints
 62
     7
100
AcDbPoint
 10
1539.752850298242
 20
187.0140702139949
 30
0.0
  0
POINT
  5
1A6
330
19D
100
AcDbEntity
  8
_1-6__0-7__0-3_Defpoints
 62
     7
100
AcDbPoint
 10
1701.436888334181
 20
187.0140702139949
 30
0.0
  0
ENDBLK
  5
1A7
330
19D
100
AcDbEntity
  8
0
100
AcDbBlockEnd
  0
BLOCK
  5
1A8
330
1A9
100
AcDbEntity
  8
0
100
AcDbBlockBegin
  2
-023-_D24
 70
     0
 10
0.0
 20
0.0
 30
0.0
  3
-023-_D24
  1

  0
LINE
  5
1AA
330
1A9
100
AcDbEntity
  8
_0-2_蟇_豕__
  6
Continuous
 62
     7
100
AcDbLine
 10
1549.752850298243
 20
-656.9179103017279
 30
0.0
 11
1711.436888334181
 21
-656.9179103017279
 31
0.0
  0
LINE
  5
1AB
330
1A9
100
AcDbEntity
  8
_0-2_蟇_豕__
  6
Continuous
 62
     7
100
AcDbLine
 10
1549.752850298242
 20
187.0140702139949
 30
0.0
 11
1711.43688833418
 21
187.014070213995
 31
0.0
  0
LINE
  5
1AC
330
1A9
100
AcDbEntity
  8
_0-a__0-2_蟇_豕__ts
  6
Continuous
 62
     7
100
AcDbLine
 10
1701.436888334181
 20
-650.9182765126654
 30
0.0
 11
1701.43688833418
 21
181.0144364249325
 31
0.0
  0
INSERT
  5
1AD
330
1A9
100
AcDbEntity
  8
_0-a__0-2_蟇_豕__ts
100
AcDbBlockReference
  2
-001-VW_EMPTYBALL
 10
1701.436888334181
 20
-656.9179103017279
 30
0.0
 41
5.9996337890625
 42
5.9996337890625
 50
270.0
  0
INSERT
  5
1AE
330
1A9
100
AcDbEntity
  8
_0-2_蟇_豕__
100
AcDbBlockReference
  2
-001-VW_EMPTYBALL
 10
1701.43688833418
 20
187.014070213995
 30
0.0
 41
5.9996337890625
 42
5.9996337890625
 50
90.00000000000001
  0
TEXT
  5
1AF
330
1A9
100
AcDbEntity
  8
_0-2_蟇_豕__
 62
     7
100
AcDbText
 10
1696.43688833418
 20
-253.229874145429
 30
0.0
 40
24.37060546875
  1
844
 50
90.0
100
AcDbText
  0
POINT
  5
1B0
330
1A9
100
AcDbEntity
  8
_1-6__0-7__0-3_Defpoints
 62
     7
100
AcDbPoint
 10
1539.752850298243
 20
-656.9179103017279
 30
0.0
  0
POINT
  5
1B1
330
1A9
100
AcDbEntity
  8
_1-6__0-7__0-3_Defpoints
 62
     7
100
AcDbPoint
 10
1539.752850298242
 20
187.0140702139949
 30
0.0
  0
POINT
  5
1B2
330
1A9
100
AcDbEntity
  8
_1-6__0-7__0-3_Defpoints
 62
     7
100
AcDbPoint
 10
1701.43688833418
 20
187.014070213995
 30
0.0
  0
ENDBLK
  5
1B3
330
1A9
100
AcDbEntity
  8
0
100
AcDbBlockEnd
  0
BLOCK
  5
1B4
330
1B5
100
AcDbEntity
  8
0
100
AcDbBlockBegin
  2
-024-_D25
 70
     0
 10
0.0
 20
0.0
 30
0.0
  3
-024-_D25
  1

  0
LINE
  5
1B6
330
1B5
100
AcDbEntity
  8
_0-a__0-2_蟇_豕__ts
  6
Continuous
 62
     7
100
AcDbLine
 10
-1444.09157333282
 20
704.8320896986538
 30
0.0
 11
-1582.191182689701
 21
704.8320896986312
 31
0.0
  0
LINE
  5
1B7
330
1B5
100
AcDbEntity
  8
_0-2_蟇_豕__
  6
Continuous
 62
     7
100
AcDbLine
 10
-1440.90959281748
 20
708.014070213999
 30
0.0
 11
-1582.191182689702
 21
708.014070213976
 31
0.0
  0
LINE
  5
1B8
330
1B5
100
AcDbEntity
  8
_0-a__0-2_蟇_豕__ts
  6
Continuous
 62
     7
100
AcDbLine
 10
-1572.191182689701
 20
704.8320896986328
 30
0.0
 11
-1572.191182689702
 21
708.0140702139776
 31
0.0
  0
LINE
  5
1B9
330
1B5
100
AcDbEntity
  8
_0-a__0-2_蟇_豕__ts
  6
Continuous
 62
     7
100
AcDbLine
 10
-1572.191182689701
 20
698.8324559095703
 30
0.0
 11
-1572.1911826897
 21
692.8328221205078
 31
0.0
  0
LINE
  5
1BA
330
1B5
100
AcDbEntity
  8
_0-a__0-2_蟇_豕__ts
  6
Continuous
 62
     7
100
AcDbLine
 10
-1572.191182689703
 20
714.0137040030401
 30
0.0
 11
-1572.191182689704
 21
720.0133377921026
 31
0.0
  0
INSERT
  5
1BB
330
1B5
100
AcDbEntity
  8
_0-a__0-2_蟇_豕__ts
100
AcDbBlockReference
  2
-001-VW_EMPTYBALL
 10
-1572.191182689701
 20
704.8320896986328
 30
0.0
 41
5.9996337890625
 42
5.9996337890625
 50
90.0000000000082
  0
INSERT
  5
1BC
330
1B5
100
AcDbEntity
  8
_0-a__0-2_蟇_豕__ts
100
AcDbBlockReference
  2
-001-VW_EMPTYBALL
 10
-1572.191182689702
 20
708.0140702139776
 30
0.0
 41
5.9996337890625
 42
5.9996337890625
 50
270.0000000000082
  0
TEXT
  5
1BD
330
1B5
100
AcDbEntity
  8
_0-a__0-2_蟇_豕__ts
 62
     7
100
AcDbText
 10
-1580.722129955325
 20
712.2393357601304
 30
0.0
 40
24.37060546875
  1
3
 50
90.0
100
AcDbText
  0
POINT
  5
1BE
330
1B5
100
AcDbEntity
  8
_1-6__0-7__0-3_Defpoints
 62
     7
100
AcDbPoint
 10
-1434.09157333282
 20
704.8320896986554
 30
0.0
  0
POINT
  5
1BF
330
1B5
100
AcDbEntity
  8
_1-6__0-7__0-3_Defpoints
 62
     7
100
AcDbPoint
 10
-1430.90959281748
 20
708.0140702140006
 30
0.0
  0
POINT
  5
1C0
330
1B5
100
AcDbEntity
  8
_1-6__0-7__0-3_Defpoints
 62
     7
100
AcDbPoint
 10
-1572.191182689702
 20
708.0140702139776
 30
0.0
  0
ENDBLK
  5
1C1
330
1B5
100
AcDbEntity
  8
0
100
AcDbBlockEnd
  0
BLOCK
  5
1C2
330
1C3
100
AcDbEntity
  8
0
100
AcDbBlockBegin
  2
-025-_D26
 70
     0
 10
0.0
 20
0.0
 30
0.0
  3
-025-_D26
  1

  0
LINE
  5
1C4
330
1C3
100
AcDbEntity
  8
_0-a__0-2_蟇_豕__ts
  6
Continuous
 62
     7
100
AcDbLine
 10
-1435.591573333065
 20
-799.6679103013465
 30
0.0
 11
-1582.191182689457
 21
-799.6679103013704
 31
0.0
  0
LINE
  5
1C5
330
1C3
100
AcDbEntity
  8
_0-2_蟇_豕__
  6
Continuous
 62
     7
100
AcDbLine
 10
-1444.09157333282
 20
704.83208969866
 30
0.0
 11
-1582.191182689703
 21
704.8320896986373
 31
0.0
  0
LINE
  5
1C6
330
1C3
100
AcDbEntity
  8
_0-a__0-2_蟇_豕__ts
  6
Continuous
 62
     7
100
AcDbLine
 10
-1572.191182689458
 20
-793.6682765123063
 30
0.0
 11
-1572.191182689702
 21
698.8324559095764
 31
0.0
  0
INSERT
  5
1C7
330
1C3
100
AcDbEntity
  8
_0-a__0-2_蟇_豕__ts
100
AcDbBlockReference
  2
-001-VW_EMPTYBALL
 10
-1572.191182689457
 20
-799.6679103013688
 30
0.0
 41
5.9996337890625
 42
5.9996337890625
 50
270.0000000000094
  0
INSERT
  5
1C8
330
1C3
100
AcDbEntity
  8
_0-2_蟇_豕__
100
AcDbBlockReference
  2
-001-VW_EMPTYBALL
 10
-1572.191182689703
 20
704.8320896986389
 30
0.0
 41
5.9996337890625
 42
5.9996337890625
 50
90.00000000000935
  0
TEXT
  5
1C9
330
1C3
100
AcDbEntity
  8
_0-a__0-2_蟇_豕__ts
 62
     7
100
AcDbText
 10
-1577.19118268958
 20
-83.97381850449275
 30
0.0
 40
24.37060546875
  1
1504.5
 50
90.0
100
AcDbText
  0
POINT
  5
1CA
330
1C3
100
AcDbEntity
  8
_1-6__0-7__0-3_Defpoints
 62
     7
100
AcDbPoint
 10
-1425.591573333065
 20
-799.6679103013449
 30
0.0
  0
POINT
  5
1CB
330
1C3
100
AcDbEntity
  8
_1-6__0-7__0-3_Defpoints
 62
     7
100
AcDbPoint
 10
-1434.09157333282
 20
704.8320896986615
 30
0.0
  0
POINT
  5
1CC
330
1C3
100
AcDbEntity
  8
_1-6__0-7__0-3_Defpoints
 62
     7
100
AcDbPoint
 10
-1572.191182689703
 20
704.8320896986389
 30
0.0
  0
ENDBLK
  5
1CD
330
1C3
100
AcDbEntity
  8
0
100
AcDbBlockEnd
  0
BLOCK
  5
1CE
330
1CF
100
AcDbEntity
  8
0
100
AcDbBlockBegin
  2
-026-_D27
 70
     0
 10
0.0
 20
0.0
 30
0.0
  3
-026-_D27
  1

  0
LINE
  5
1D0
330
1CF
100
AcDbEntity
  8
_0-a__0-2_蟇_豕__ts
  6
Continuous
 62
     7
100
AcDbLine
 10
-991.0915733330647
 20
-819.1679103014151
 30
0.0
 11
-991.0915733330647
 21
-932.3275031188232
 31
0.0
  0
LINE
  5
1D1
330
1CF
100
AcDbEntity
  8
_0-a__0-2_蟇_豕__ts
  6
Continuous
 62
     7
100
AcDbLine
 10
-1435.091573333065
 20
-819.1679103014151
 30
0.0
 11
-1435.091573333065
 21
-932.3275031188232
 31
0.0
  0
LINE
  5
1D2
330
1CF
100
AcDbEntity
  8
_0-a__0-2_蟇_豕__ts
  6
Continuous
 62
     7
100
AcDbLine
 10
-997.0912071221272
 20
-922.3275031188232
 30
0.0
 11
-1429.091939544002
 21
-922.3275031188232
 31
0.0
  0
INSERT
  5
1D3
330
1CF
100
AcDbEntity
  8
_0-a__0-2_蟇_豕__ts
100
AcDbBlockReference
  2
-001-VW_EMPTYBALL
 10
-991.0915733330647
 20
-922.3275031188232
 30
0.0
 41
5.9996337890625
 42
5.9996337890625
  0
INSERT
  5
1D4
330
1CF
100
AcDbEntity
  8
_0-a__0-2_蟇_豕__ts
100
AcDbBlockReference
  2
-001-VW_EMPTYBALL
 10
-1435.091573333065
 20
-922.3275031188232
 30
0.0
 41
5.9996337890625
 42
5.9996337890625
 50
180.0
  0
TEXT
  5
1D5
330
1CF
100
AcDbEntity
  8
_0-a__0-2_蟇_豕__ts
 62
     7
100
AcDbText
 10
-1231.369527434628
 20
-917.3275031188232
 30
0.0
 40
24.37060546875
  1
444
100
AcDbText
  0
POINT
  5
1D6
330
1CF
100
AcDbEntity
  8
_1-6__0-7__0-3_Defpoints
 62
     7
100
AcDbPoint
 10
-991.0915733330647
 20
-809.1679103014151
 30
0.0
  0
POINT
  5
1D7
330
1CF
100
AcDbEntity
  8
_1-6__0-7__0-3_Defpoints
 62
     7
100
AcDbPoint
 10
-1435.091573333065
 20
-809.1679103014151
 30
0.0
  0
POINT
  5
1D8
330
1CF
100
AcDbEntity
  8
_1-6__0-7__0-3_Defpoints
 62
     7
100
AcDbPoint
 10
-1435.091573333065
 20
-922.3275031188232
 30
0.0
  0
ENDBLK
  5
1D9
330
1CF
100
AcDbEntity
  8
0
100
AcDbBlockEnd
  0
BLOCK
  5
1DA
330
1DB
100
AcDbEntity
  8
0
100
AcDbBlockBegin
  2
-027-_D28
 70
     0
 10
0.0
 20
0.0
 30
0.0
  3
-027-_D28
  1

  0
LINE
  5
1DC
330
1DB
100
AcDbEntity
  8
_0-a__0-2_蟇_豕__ts
  6
Continuous
 62
     7
100
AcDbLine
 10
-1445.591573333065
 20
-804.667910301346
 30
0.0
 11
-1582.191182689947
 21
-804.6679103013709
 31
0.0
  0
LINE
  5
1DD
330
1DB
100
AcDbEntity
  8
_0-a__0-2_蟇_豕__ts
  6
Continuous
 62
     7
100
AcDbLine
 10
-1445.591573333065
 20
-799.6679103013449
 30
0.0
 11
-1582.191182689948
 21
-799.6679103013698
 31
0.0
  0
LINE
  5
1DE
330
1DB
100
AcDbEntity
  8
_0-a__0-2_蟇_豕__ts
  6
Continuous
 62
     7
100
AcDbLine
 10
-1572.191182689947
 20
-804.667910301369
 30
0.0
 11
-1572.191182689948
 21
-799.667910301368
 31
0.0
  0
LINE
  5
1DF
330
1DB
100
AcDbEntity
  8
_0-2_蟇_豕__
  6
Continuous
 62
     7
100
AcDbLine
 10
-1572.191182689946
 20
-810.6675440904315
 30
0.0
 11
-1572.191182689945
 21
-816.667177879494
 31
0.0
  0
LINE
  5
1E0
330
1DB
100
AcDbEntity
  8
_0-2_蟇_豕__
  6
Continuous
 62
     7
100
AcDbLine
 10
-1572.191182689949
 20
-793.6682765123055
 30
0.0
 11
-1572.19118268995
 21
-787.668642723243
 31
0.0
  0
INSERT
  5
1E1
330
1DB
100
AcDbEntity
  8
_0-a__0-2_蟇_豕__ts
100
AcDbBlockReference
  2
-001-VW_EMPTYBALL
 10
-1572.191182689947
 20
-804.667910301369
 30
0.0
 41
5.9996337890625
 42
5.9996337890625
 50
90.00000000001042
  0
INSERT
  5
1E2
330
1DB
100
AcDbEntity
  8
_0-2_蟇_豕__
100
AcDbBlockReference
  2
-001-VW_EMPTYBALL
 10
-1572.191182689948
 20
-799.667910301368
 30
0.0
 41
5.9996337890625
 42
5.9996337890625
 50
270.0000000000106
  0
TEXT
  5
1E3
330
1DB
100
AcDbEntity
  8
_0-2_蟇_豕__
 62
     7
100
AcDbText
 10
-1582.722129955571
 20
-792.4966727796127
 30
0.0
 40
24.37060546875
  1
5
 50
90.0
100
AcDbText
  0
POINT
  5
1E4
330
1DB
100
AcDbEntity
  8
_1-6__0-7__0-3_Defpoints
 62
     7
100
AcDbPoint
 10
-1435.591573333065
 20
-804.6679103013441
 30
0.0
  0
POINT
  5
1E5
330
1DB
100
AcDbEntity
  8
_1-6__0-7__0-3_Defpoints
 62
     7
100
AcDbPoint
 10
-1435.591573333065
 20
-799.6679103013431
 30
0.0
  0
POINT
  5
1E6
330
1DB
100
AcDbEntity
  8
_1-6__0-7__0-3_Defpoints
 62
     7
100
AcDbPoint
 10
-1572.191182689948
 20
-799.667910301368
 30
0.0
  0
ENDBLK
  5
1E7
330
1DB
100
AcDbEntity
  8
0
100
AcDbBlockEnd
  0
BLOCK
  5
1E8
330
1E9
100
AcDbEntity
  8
0
100
AcDbBlockBegin
  2
-028-_D29
 70
     0
 10
0.0
 20
0.0
 30
0.0
  3
-028-_D29
  1

  0
LINE
  5
1EA
330
1E9
100
AcDbEntity
  8
_0-a__0-2_蟇_豕__ts
  6
Continuous
 62
     7
100
AcDbLine
 10
-1445.591573333065
 20
-809.1679103014166
 30
0.0
 11
-1582.191182689948
 21
-809.1679103014372
 31
0.0
  0
LINE
  5
1EB
330
1E9
100
AcDbEntity
  8
_0-a__0-2_蟇_豕__ts
  6
Continuous
 62
     7
100
AcDbLine
 10
-1445.591573333065
 20
-804.6679103013456
 30
0.0
 11
-1582.191182689949
 21
-804.6679103013663
 31
0.0
  0
LINE
  5
1EC
330
1E9
100
AcDbEntity
  8
_0-a__0-2_蟇_豕__ts
  6
Continuous
 62
     7
100
AcDbLine
 10
-1572.191182689948
 20
-809.1679103014358
 30
0.0
 11
-1572.191182689949
 21
-804.6679103013648
 31
0.0
  0
LINE
  5
1ED
330
1E9
100
AcDbEntity
  8
_0-a__0-2_蟇_豕__ts
  6
Continuous
 62
     7
100
AcDbLine
 10
-1572.191182689947
 20
-815.1675440904983
 30
0.0
 11
-1572.191182689946
 21
-821.1671778795608
 31
0.0
  0
LINE
  5
1EE
330
1E9
100
AcDbEntity
  8
_0-2_蟇_豕__
  6
Continuous
 62
     7
100
AcDbLine
 10
-1572.19118268995
 20
-798.6682765123023
 30
0.0
 11
-1572.19118268995
 21
-792.6686427232398
 31
0.0
  0
INSERT
  5
1EF
330
1E9
100
AcDbEntity
  8
_0-a__0-2_蟇_豕__ts
100
AcDbBlockReference
  2
-001-VW_EMPTYBALL
 10
-1572.191182689948
 20
-809.1679103014358
 30
0.0
 41
5.9996337890625
 42
5.9996337890625
 50
90.00000000000867
  0
INSERT
  5
1F0
330
1E9
100
AcDbEntity
  8
_0-a__0-2_蟇_豕__ts
100
AcDbBlockReference
  2
-001-VW_EMPTYBALL
 10
-1572.191182689949
 20
-804.6679103013648
 30
0.0
 41
5.9996337890625
 42
5.9996337890625
 50
270.0000000000087
  0
TEXT
  5
1F1
330
1E9
100
AcDbEntity
  8
_0-a__0-2_蟇_豕__ts
 62
     7
100
AcDbText
 10
-1538.776890194112
 20
-851.2583660852356
 30
0.0
 40
24.37060546875
  1
4.5
 50
90.0
100
AcDbText
  0
POINT
  5
1F2
330
1E9
100
AcDbEntity
  8
_1-6__0-7__0-3_Defpoints
 62
     7
100
AcDbPoint
 10
-1435.591573333065
 20
-809.1679103014151
 30
0.0
  0
POINT
  5
1F3
330
1E9
100
AcDbEntity
  8
_1-6__0-7__0-3_Defpoints
 62
     7
100
AcDbPoint
 10
-1435.591573333065
 20
-804.6679103013441
 30
0.0
  0
POINT
  5
1F4
330
1E9
100
AcDbEntity
  8
_1-6__0-7__0-3_Defpoints
 62
     7
100
AcDbPoint
 10
-1572.191182689949
 20
-804.6679103013648
 30
0.0
  0
ENDBLK
  5
1F5
330
1E9
100
AcDbEntity
  8
0
100
AcDbBlockEnd
  0
BLOCK
  5
1F6
330
1F7
100
AcDbEntity
  8
0
100
AcDbBlockBegin
  2
-029-_D30
 70
     0
 10
0.0
 20
0.0
 30
0.0
  3
-029-_D30
  1

  0
LINE
  5
1F8
330
1F7
100
AcDbEntity
  8
_0-a__0-2_蟇_豕__ts
  6
Continuous
 62
     7
100
AcDbLine
 10
-1473.09157333308
 20
-856.9179103013508
 30
0.0
 11
-1582.191182689942
 21
-856.9179103013687
 31
0.0
  0
LINE
  5
1F9
330
1F7
100
AcDbEntity
  8
_0-a__0-2_蟇_豕__ts
  6
Continuous
 62
     7
100
AcDbLine
 10
-1446.591573333067
 20
-809.1679103013447
 30
0.0
 11
-1582.191182689949
 21
-809.1679103013669
 31
0.0
  0
LINE
  5
1FA
330
1F7
100
AcDbEntity
  8
_0-2_蟇_豕__
  6
Continuous
 62
     7
100
AcDbLine
 10
-1572.191182689942
 20
-850.9182765123046
 30
0.0
 11
-1572.191182689948
 21
-815.1675440904278
 31
0.0
  0
INSERT
  5
1FB
330
1F7
100
AcDbEntity
  8
_0-2_蟇_豕__
100
AcDbBlockReference
  2
-001-VW_EMPTYBALL
 10
-1572.191182689942
 20
-856.9179103013671
 30
0.0
 41
5.9996337890625
 42
5.9996337890625
 50
270.0000000000093
  0
INSERT
  5
1FC
330
1F7
100
AcDbEntity
  8
_0-a__0-2_蟇_豕__ts
100
AcDbBlockReference
  2
-001-VW_EMPTYBALL
 10
-1572.191182689949
 20
-809.1679103013653
 30
0.0
 41
5.9996337890625
 42
5.9996337890625
 50
90.00000000000925
  0
TEXT
  5
1FD
330
1F7
100
AcDbEntity
  8
_0-a__0-2_蟇_豕__ts
 62
     7
100
AcDbText
 10
-1583.338808285853
 20
-885.0686671373652
 30
0.0
 40
24.37060546875
  1
47.75
 50
90.0
100
AcDbText
  0
POINT
  5
1FE
330
1F7
100
AcDbEntity
  8
_1-6__0-7__0-3_Defpoints
 62
     7
100
AcDbPoint
 10
-1463.09157333308
 20
-856.9179103013493
 30
0.0
  0
POINT
  5
1FF
330
1F7
100
AcDbEntity
  8
_1-6__0-7__0-3_Defpoints
 62
     7
100
AcDbPoint
 10
-1436.591573333067
 20
-809.1679103013431
 30
0.0
  0
POINT
  5
200
330
1F7
100
AcDbEntity
  8
_1-6__0-7__0-3_Defpoints
 62
     7
100
AcDbPoint
 10
-1572.191182689949
 20
-809.1679103013653
 30
0.0
  0
ENDBLK
  5
201
330
1F7
100
AcDbEntity
  8
0
100
AcDbBlockEnd
  0
BLOCK
  5
202
330
203
100
AcDbEntity
  8
0
100
AcDbBlockBegin
  2
-030-_D31
 70
     0
 10
0.0
 20
0.0
 30
0.0
  3
-030-_D31
  1

  0
LINE
  5
204
330
203
100
AcDbEntity
  8
_0-a__0-2_蟇_豕__ts
  6
Continuous
 62
     7
100
AcDbLine
 10
-1473.09157333308
 20
-856.9179103013493
 30
0.0
 11
-1673.0
 21
-856.9179103013494
 31
0.0
  0
LINE
  5
205
330
203
100
AcDbEntity
  8
_0-a__0-2_蟇_豕__ts
  6
Continuous
 62
     7
100
AcDbLine
 10
-1440.90959281748
 20
708.0140702140006
 30
0.0
 11
-1673.0
 21
708.0140702140006
 31
0.0
  0
LINE
  5
206
330
203
100
AcDbEntity
  8
_0-a__0-2_蟇_豕__ts
  6
Continuous
 62
     7
100
AcDbLine
 10
-1663.0
 20
-850.9182765122869
 30
0.0
 11
-1663.0
 21
702.0144364249381
 31
0.0
  0
INSERT
  5
207
330
203
100
AcDbEntity
  8
_0-a__0-2_蟇_豕__ts
100
AcDbBlockReference
  2
-001-VW_EMPTYBALL
 10
-1663.0
 20
-856.9179103013494
 30
0.0
 41
5.9996337890625
 42
5.9996337890625
 50
270.0
  0
INSERT
  5
208
330
203
100
AcDbEntity
  8
_0-a__0-2_蟇_豕__ts
100
AcDbBlockReference
  2
-001-VW_EMPTYBALL
 10
-1663.0
 20
708.0140702140006
 30
0.0
 41
5.9996337890625
 42
5.9996337890625
 50
90.0
  0
TEXT
  5
209
330
203
100
AcDbEntity
  8
_0-2_蟇_豕__
 62
     7
100
AcDbText
 10
-1668.0
 20
-98.82252551242436
 30
0.0
 40
24.37060546875
  1
1565
 50
90.0
100
AcDbText
  0
POINT
  5
20A
330
203
100
AcDbEntity
  8
_1-6__0-7__0-3_Defpoints
 62
     7
100
AcDbPoint
 10
-1463.09157333308
 20
-856.9179103013493
 30
0.0
  0
POINT
  5
20B
330
203
100
AcDbEntity
  8
_1-6__0-7__0-3_Defpoints
 62
     7
100
AcDbPoint
 10
-1430.90959281748
 20
708.0140702140006
 30
0.0
  0
POINT
  5
20C
330
203
100
AcDbEntity
  8
_1-6__0-7__0-3_Defpoints
 62
     7
100
AcDbPoint
 10
-1663.0
 20
708.0140702140006
 30
0.0
  0
ENDBLK
  5
20D
330
203
100
AcDbEntity
  8
0
100
AcDbBlockEnd
  0
BLOCK
  5
20E
330
20F
100
AcDbEntity
  8
0
100
AcDbBlockBegin
  2
-031-_D32
 70
     0
 10
0.0
 20
0.0
 30
0.0
  3
-031-_D32
  1

  0
LINE
  5
210
330
20F
100
AcDbEntity
  8
_0-a__0-2_蟇_豕__ts
  6
Continuous
 62
     7
100
AcDbLine
 10
-913.0915733329066
 20
-966.9179103015225
 30
0.0
 11
-913.0915733329066
 21
-1061.207810190587
 31
0.0
  0
LINE
  5
211
330
20F
100
AcDbEntity
  8
_0-a__0-2_蟇_豕__ts
  6
Continuous
 62
     7
100
AcDbLine
 10
-1513.091573332955
 20
-966.9179103014246
 30
0.0
 11
-1513.091573332955
 21
-1061.207810190587
 31
0.0
  0
LINE
  5
212
330
20F
100
AcDbEntity
  8
_0-a__0-2_蟇_豕__ts
  6
Continuous
 62
     7
100
AcDbLine
 10
-919.0912071219691
 20
-1051.207810190587
 30
0.0
 11
-1507.091939543893
 21
-1051.207810190587
 31
0.0
  0
INSERT
  5
213
330
20F
100
AcDbEntity
  8
_0-2_蟇_豕__
100
AcDbBlockReference
  2
-001-VW_EMPTYBALL
 10
-913.0915733329066
 20
-1051.207810190587
 30
0.0
 41
5.9996337890625
 42
5.9996337890625
  0
INSERT
  5
214
330
20F
100
AcDbEntity
  8
_0-2_蟇_豕__
100
AcDbBlockReference
  2
-001-VW_EMPTYBALL
 10
-1513.091573332955
 20
-1051.207810190587
 30
0.0
 41
5.9996337890625
 42
5.9996337890625
 50
180.0
  0
TEXT
  5
215
330
20F
100
AcDbEntity
  8
_0-a__0-2_蟇_豕__ts
 62
     7
100
AcDbText
 10
-1231.369527434493
 20
-1046.207810190587
 30
0.0
 40
24.37060546875
  1
600
100
AcDbText
  0
POINT
  5
216
330
20F
100
AcDbEntity
  8
_1-6__0-7__0-3_Defpoints
 62
     7
100
AcDbPoint
 10
-913.0915733329066
 20
-956.9179103015225
 30
0.0
  0
POINT
  5
217
330
20F
100
AcDbEntity
  8
_1-6__0-7__0-3_Defpoints
 62
     7
100
AcDbPoint
 10
-1513.091573332955
 20
-956.9179103014246
 30
0.0
  0
POINT
  5
218
330
20F
100
AcDbEntity
  8
_1-6__0-7__0-3_Defpoints
 62
     7
100
AcDbPoint
 10
-1513.091573332955
 20
-1051.207810190587
 30
0.0
  0
ENDBLK
  5
219
330
20F
100
AcDbEntity
  8
0
100
AcDbBlockEnd
  0
BLOCK
  5
21A
330
21B
100
AcDbEntity
  8
0
100
AcDbBlockBegin
  2
-032-_D33
 70
     0
 10
0.0
 20
0.0
 30
0.0
  3
-032-_D33
  1

  0
LINE
  5
21C
330
21B
100
AcDbEntity
  8
_0-a__0-2_蟇_豕__ts
  6
Continuous
 62
     7
100
AcDbLine
 10
-69.15959281748326
 20
177.0140702138114
 30
0.0
 11
-69.15959281748326
 21
-1061.207810190587
 31
0.0
  0
LINE
  5
21D
330
21B
100
AcDbEntity
  8
_0-a__0-2_蟇_豕__ts
  6
Continuous
 62
     7
100
AcDbLine
 10
-913.0915733329066
 20
-966.9179103015225
 30
0.0
 11
-913.0915733329066
 21
-1061.207810190587
 31
0.0
  0
LINE
  5
21E
330
21B
100
AcDbEntity
  8
_0-a__0-2_蟇_豕__ts
  6
Continuous
 62
     7
100
AcDbLine
 10
-75.15922660654576
 20
-1051.207810190587
 30
0.0
 11
-907.0919395438441
 21
-1051.207810190587
 31
0.0
  0
INSERT
  5
21F
330
21B
100
AcDbEntity
  8
_0-a__0-2_蟇_豕__ts
100
AcDbBlockReference
  2
-001-VW_EMPTYBALL
 10
-69.15959281748326
 20
-1051.207810190587
 30
0.0
 41
5.9996337890625
 42
5.9996337890625
  0
INSERT
  5
220
330
21B
100
AcDbEntity
  8
_0-a__0-2_蟇_豕__ts
100
AcDbBlockReference
  2
-001-VW_EMPTYBALL
 10
-913.0915733329066
 20
-1051.207810190587
 30
0.0
 41
5.9996337890625
 42
5.9996337890625
 50
180.0
  0
TEXT
  5
221
330
21B
100
AcDbEntity
  8
_0-2_蟇_豕__
 62
     7
100
AcDbText
 10
-509.4035371767574
 20
-1046.207810190587
 30
0.0
 40
24.37060546875
  1
844
100
AcDbText
  0
POINT
  5
222
330
21B
100
AcDbEntity
  8
_1-6__0-7__0-3_Defpoints
 62
     7
100
AcDbPoint
 10
-69.15959281748326
 20
187.0140702138114
 30
0.0
  0
POINT
  5
223
330
21B
100
AcDbEntity
  8
_1-6__0-7__0-3_Defpoints
 62
     7
100
AcDbPoint
 10
-913.0915733329066
 20
-956.9179103015225
 30
0.0
  0
POINT
  5
224
330
21B
100
AcDbEntity
  8
_1-6__0-7__0-3_Defpoints
 62
     7
100
AcDbPoint
 10
-913.0915733329066
 20
-1051.207810190587
 30
0.0
  0
ENDBLK
  5
225
330
21B
100
AcDbEntity
  8
0
100
AcDbBlockEnd
  0
BLOCK
  5
226
330
227
100
AcDbEntity
  8
0
100
AcDbBlockBegin
  2
-033-_D34
 70
     0
 10
0.0
 20
0.0
 30
0.0
  3
-033-_D34
  1

  0
LINE
  5
228
330
227
100
AcDbEntity
  8
_0-a__0-2_蟇_豕__ts
  6
Continuous
 62
     7
100
AcDbLine
 10
230.8404071826141
 20
177.0140702138114
 30
0.0
 11
230.8404071826141
 21
-1061.207810190587
 31
0.0
  0
LINE
  5
229
330
227
100
AcDbEntity
  8
_0-a__0-2_蟇_豕__ts
  6
Continuous
 62
     7
100
AcDbLine
 10
-69.15959281748326
 20
177.0140702138114
 30
0.0
 11
-69.15959281748326
 21
-1061.207810190587
 31
0.0
  0
LINE
  5
22A
330
227
100
AcDbEntity
  8
_0-a__0-2_蟇_豕__ts
  6
Continuous
 62
     7
100
AcDbLine
 10
224.8407733935516
 20
-1051.207810190587
 30
0.0
 11
-63.15995902842076
 21
-1051.207810190587
 31
0.0
  0
INSERT
  5
22B
330
227
100
AcDbEntity
  8
_0-2_蟇_豕__
100
AcDbBlockReference
  2
-001-VW_EMPTYBALL
 10
230.8404071826141
 20
-1051.207810190587
 30
0.0
 41
5.9996337890625
 42
5.9996337890625
  0
INSERT
  5
22C
330
227
100
AcDbEntity
  8
_0-a__0-2_蟇_豕__ts
100
AcDbBlockReference
  2
-001-VW_EMPTYBALL
 10
-69.15959281748326
 20
-1051.207810190587
 30
0.0
 41
5.9996337890625
 42
5.9996337890625
 50
180.0
  0
TEXT
  5
22D
330
227
100
AcDbEntity
  8
_0-a__0-2_蟇_豕__ts
 62
     7
100
AcDbText
 10
62.56245308100294
 20
-1046.207810190587
 30
0.0
 40
24.37060546875
  1
300
100
AcDbText
  0
POINT
  5
22E
330
227
100
AcDbEntity
  8
_1-6__0-7__0-3_Defpoints
 62
     7
100
AcDbPoint
 10
230.8404071826141
 20
187.0140702138114
 30
0.0
  0
POINT
  5
22F
330
227
100
AcDbEntity
  8
_1-6__0-7__0-3_Defpoints
 62
     7
100
AcDbPoint
 10
-69.15959281748326
 20
187.0140702138114
 30
0.0
  0
POINT
  5
230
330
227
100
AcDbEntity
  8
_1-6__0-7__0-3_Defpoints
 62
     7
100
AcDbPoint
 10
-69.15959281748326
 20
-1051.207810190587
 30
0.0
  0
ENDBLK
  5
231
330
227
100
AcDbEntity
  8
0
100
AcDbBlockEnd
  0
BLOCK
  5
232
330
233
100
AcDbEntity
  8
0
100
AcDbBlockBegin
  2
-034-_D35
 70
     0
 10
0.0
 20
0.0
 30
0.0
  3
-034-_D35
  1

  0
LINE
  5
234
330
233
100
AcDbEntity
  8
_0-a__0-2_蟇_豕__ts
  6
Continuous
 62
     7
100
AcDbLine
 10
-278.0
 20
266.0140702140004
 30
0.0
 11
-212.7294033864655
 21
266.0140702140004
 31
0.0
  0
LINE
  5
235
330
233
100
AcDbEntity
  8
_0-a__0-2_蟇_豕__ts
  6
Continuous
 62
     7
100
AcDbLine
 10
-271.7281036449364
 20
708.0140702140006
 30
0.0
 11
-212.7294033864655
 21
708.0140702140006
 31
0.0
  0
LINE
  5
236
330
233
100
AcDbEntity
  8
_0-a__0-2_蟇_豕__ts
  6
Continuous
 62
     7
100
AcDbLine
 10
-222.7294033864655
 20
272.0137040030629
 30
0.0
 11
-222.7294033864655
 21
702.0144364249381
 31
0.0
  0
INSERT
  5
237
330
233
100
AcDbEntity
  8
_0-a__0-2_蟇_豕__ts
100
AcDbBlockReference
  2
-001-VW_EMPTYBALL
 10
-222.7294033864655
 20
266.0140702140004
 30
0.0
 41
5.9996337890625
 42
5.9996337890625
 50
270.0
  0
INSERT
  5
238
330
233
100
AcDbEntity
  8
_0-a__0-2_蟇_豕__ts
100
AcDbBlockReference
  2
-001-VW_EMPTYBALL
 10
-222.7294033864655
 20
708.0140702140006
 30
0.0
 41
5.9996337890625
 42
5.9996337890625
 50
90.0
  0
TEXT
  5
239
330
233
100
AcDbEntity
  8
_0-a__0-2_蟇_豕__ts
 62
     7
100
AcDbText
 10
-227.7294033864655
 20
468.736116112438
 30
0.0
 40
24.37060546875
  1
442
 50
90.0
100
AcDbText
  0
POINT
  5
23A
330
233
100
AcDbEntity
  8
_1-6__0-7__0-3_Defpoints
 62
     7
100
AcDbPoint
 10
-288.0
 20
266.0140702140004
 30
0.0
  0
POINT
  5
23B
330
233
100
AcDbEntity
  8
_1-6__0-7__0-3_Defpoints
 62
     7
100
AcDbPoint
 10
-281.7281036449364
 20
708.0140702140006
 30
0.0
  0
POINT
  5
23C
330
233
100
AcDbEntity
  8
_1-6__0-7__0-3_Defpoints
 62
     7
100
AcDbPoint
 10
-222.7294033864655
 20
708.0140702140006
 30
0.0
  0
ENDBLK
  5
23D
330
233
100
AcDbEntity
  8
0
100
AcDbBlockEnd
  0
BLOCK
  5
23E
330
23F
100
AcDbEntity
  8
0
100
AcDbBlockBegin
  2
-035-_D36
 70
     0
 10
0.0
 20
0.0
 30
0.0
  3
-035-_D36
  1

  0
LINE
  5
240
330
23F
100
AcDbEntity
  8
_0-a__0-2_蟇_豕__ts
  6
Continuous
 62
     7
100
AcDbLine
 10
91.96540718252014
 20
265.0140702142413
 30
0.0
 11
205.0
 21
265.0140702142413
 31
0.0
  0
LINE
  5
241
330
23F
100
AcDbEntity
  8
_0-a__0-2_蟇_豕__ts
  6
Continuous
 62
     7
100
AcDbLine
 10
88.59040718252014
 20
709.0140702142413
 30
0.0
 11
205.0
 21
709.0140702142413
 31
0.0
  0
LINE
  5
242
330
23F
100
AcDbEntity
  8
_0-a__0-2_蟇_豕__ts
  6
Continuous
 62
     7
100
AcDbLine
 10
195.0
 20
271.0137040033038
 30
0.0
 11
195.0
 21
703.0144364251788
 31
0.0
  0
INSERT
  5
243
330
23F
100
AcDbEntity
  8
_0-2_蟇_豕__
100
AcDbBlockReference
  2
-001-VW_EMPTYBALL
 10
195.0
 20
265.0140702142413
 30
0.0
 41
5.9996337890625
 42
5.9996337890625
 50
270.0
  0
INSERT
  5
244
330
23F
100
AcDbEntity
  8
_0-2_蟇_豕__
100
AcDbBlockReference
  2
-001-VW_EMPTYBALL
 10
195.0
 20
709.0140702142413
 30
0.0
 41
5.9996337890625
 42
5.9996337890625
 50
90.0
  0
TEXT
  5
245
330
23F
100
AcDbEntity
  8
_0-a__0-2_蟇_豕__ts
 62
     7
100
AcDbText
 10
190.0
 20
468.7361161126788
 30
0.0
 40
24.37060546875
  1
444
 50
90.0
100
AcDbText
  0
POINT
  5
246
330
23F
100
AcDbEntity
  8
_1-6__0-7__0-3_Defpoints
 62
     7
100
AcDbPoint
 10
81.96540718252014
 20
265.0140702142413
 30
0.0
  0
POINT
  5
247
330
23F
100
AcDbEntity
  8
_1-6__0-7__0-3_Defpoints
 62
     7
100
AcDbPoint
 10
78.59040718252014
 20
709.0140702142413
 30
0.0
  0
POINT
  5
248
330
23F
100
AcDbEntity
  8
_1-6__0-7__0-3_Defpoints
 62
     7
100
AcDbPoint
 10
195.0
 20
709.0140702142413
 30
0.0
  0
ENDBLK
  5
249
330
23F
100
AcDbEntity
  8
0
100
AcDbBlockEnd
  0
BLOCK
  5
24A
330
24B
100
AcDbEntity
  8
0
100
AcDbBlockBegin
  2
-036-_D38
 70
     0
 10
0.0
 20
0.0
 30
0.0
  3
-036-_D38
  1

  0
LINE
  5
24C
330
24B
100
AcDbEntity
  8
_0-a__0-2_蟇_豕__ts
  6
Continuous
 62
     7
100
AcDbLine
 10
814.7528502982431
 20
709.0140702139951
 30
0.0
 11
764.9199794970767
 21
709.0140702139952
 31
0.0
  0
LINE
  5
24D
330
24B
100
AcDbEntity
  8
_0-a__0-2_蟇_豕__ts
  6
Continuous
 62
     7
100
AcDbLine
 10
814.7528502982431
 20
265.014070213995
 30
0.0
 11
764.9199794970767
 21
265.014070213995
 31
0.0
  0
LINE
  5
24E
330
24B
100
AcDbEntity
  8
_0-2_蟇_豕__
  6
Continuous
 62
     7
100
AcDbLine
 10
774.9199794970767
 20
703.0144364249327
 30
0.0
 11
774.9199794970767
 21
271.0137040030575
 31
0.0
  0
INSERT
  5
24F
330
24B
100
AcDbEntity
  8
_0-a__0-2_蟇_豕__ts
100
AcDbBlockReference
  2
-001-VW_EMPTYBALL
 10
774.9199794970767
 20
709.0140702139952
 30
0.0
 41
5.9996337890625
 42
5.9996337890625
 50
90.0
  0
INSERT
  5
250
330
24B
100
AcDbEntity
  8
_1-a__0-d__0-2_蟇_豕___5-1
100
AcDbBlockReference
  2
-001-VW_EMPTYBALL
 10
774.9199794970767
 20
265.014070213995
 30
0.0
 41
5.9996337890625
 42
5.9996337890625
 50
270.0
  0
TEXT
  5
251
330
24B
100
AcDbEntity
  8
_0-a__0-2_蟇_豕__ts
 62
     7
100
AcDbText
 10
769.9199794970767
 20
468.7361161124326
 30
0.0
 40
24.37060546875
  1
444
 50
90.0
100
AcDbText
  0
POINT
  5
252
330
24B
100
AcDbEntity
  8
_1-6__0-7__0-3_Defpoints
 62
     7
100
AcDbPoint
 10
824.7528502982431
 20
709.0140702139951
 30
0.0
  0
POINT
  5
253
330
24B
100
AcDbEntity
  8
_1-6__0-7__0-3_Defpoints
 62
     7
100
AcDbPoint
 10
824.7528502982431
 20
265.014070213995
 30
0.0
  0
POINT
  5
254
330
24B
100
AcDbEntity
  8
_1-6__0-7__0-3_Defpoints
 62
     7
100
AcDbPoint
 10
774.9199794970767
 20
265.014070213995
 30
0.0
  0
ENDBLK
  5
255
330
24B
100
AcDbEntity
  8
0
100
AcDbBlockEnd
  0
BLOCK
  5
256
330
257
100
AcDbEntity
  8
0
100
AcDbBlockBegin
  2
-037-繧_繝_繝_繝__6-1
 70
     0
 10
0.0
 20
0.0
 30
0.0
  3
-037-繧_繝_繝_繝__6-1
  1

  0
LINE
  5
258
330
257
100
AcDbEntity
  8
_0-1_荳_闊_
  6
Continuous
 62
     7
100
AcDbLine
 10
-995.2804240577
 20
267.6958529598554
 30
0.0
 11
-990.673685024314
 21
263.0891139264694
 31
0.0
  0
LINE
  5
259
330
257
100
AcDbEntity
  8
_0-1_荳_闊_
  6
Continuous
 62
     7
100
AcDbLine
 10
-990.673685024314
 20
263.0891139264694
 30
0.0
 11
71.82631497568582
 21
263.0891139264694
 31
0.0
  0
LINE
  5
25A
330
257
100
AcDbEntity
  8
_0-1_荳_闊_
  6
Continuous
 62
     7
100
AcDbLine
 10
71.82631497568582
 20
263.0891139264694
 30
0.0
 11
71.82631497568585
 21
313.0891139264694
 31
0.0
  0
LINE
  5
25B
330
257
100
AcDbEntity
  8
_0-1_荳_闊_
  6
Continuous
 62
     7
100
AcDbLine
 10
71.82631497568585
 20
313.0891139264694
 30
0.0
 11
-1040.673685024314
 21
313.0891139264694
 31
0.0
  0
LINE
  5
25C
330
257
100
AcDbEntity
  8
_0-1_荳_闊_
  6
Continuous
 62
     7
100
AcDbLine
 10
-1040.673685024314
 20
313.0891139264694
 30
0.0
 11
-995.2804240577
 21
267.6958529598554
 31
0.0
  0
LINE
  5
25D
330
257
100
AcDbEntity
  8
_0-1_荳_闊_
  6
Continuous
 62
     7
100
AcDbLine
 10
-1096.673685024314
 20
369.0891139264694
 30
0.0
 11
-1046.673685024314
 21
319.0891139264694
 31
0.0
  0
LINE
  5
25E
330
257
100
AcDbEntity
  8
_0-1_荳_闊_
  6
Continuous
 62
     7
100
AcDbLine
 10
-1046.673685024314
 20
319.0891139264694
 30
0.0
 11
71.82631497568582
 21
319.0891139264694
 31
0.0
  0
LINE
  5
25F
330
257
100
AcDbEntity
  8
_0-1_荳_闊_
  6
Continuous
 62
     7
100
AcDbLine
 10
71.82631497568582
 20
319.0891139264694
 30
0.0
 11
71.82631497568585
 21
369.0891139264694
 31
0.0
  0
LINE
  5
260
330
257
100
AcDbEntity
  8
_0-1_荳_闊_
  6
Continuous
 62
     7
100
AcDbLine
 10
71.82631497568585
 20
369.0891139264694
 30
0.0
 11
-1096.673685024314
 21
369.0891139264694
 31
0.0
  0
LINE
  5
261
330
257
100
AcDbEntity
  8
_0-1_荳_闊_
  6
Continuous
 62
     7
100
AcDbLine
 10
-1152.673685024314
 20
425.0891139264694
 30
0.0
 11
-1102.673685024314
 21
375.0891139264696
 31
0.0
  0
LINE
  5
262
330
257
100
AcDbEntity
  8
_0-1_荳_闊_
  6
Continuous
 62
     7
100
AcDbLine
 10
-1102.673685024314
 20
375.0891139264696
 30
0.0
 11
71.82631497568582
 21
375.0891139264694
 31
0.0
  0
LINE
  5
263
330
257
100
AcDbEntity
  8
_0-1_荳_闊_
  6
Continuous
 62
     7
100
AcDbLine
 10
71.82631497568582
 20
375.0891139264694
 30
0.0
 11
71.82631497568585
 21
425.0891139264694
 31
0.0
  0
LINE
  5
264
330
257
100
AcDbEntity
  8
_0-1_荳_闊_
  6
Continuous
 62
     7
100
AcDbLine
 10
71.82631497568585
 20
425.0891139264694
 30
0.0
 11
-1152.673685024314
 21
425.0891139264694
 31
0.0
  0
LINE
  5
265
330
257
100
AcDbEntity
  8
_0-1_荳_闊_
  6
Continuous
 62
     7
100
AcDbLine
 10
-1208.673685024314
 20
481.0891139264696
 30
0.0
 11
-1158.673685024314
 21
431.0891139264696
 31
0.0
  0
LINE
  5
266
330
257
100
AcDbEntity
  8
_0-1_荳_闊_
  6
Continuous
 62
     7
100
AcDbLine
 10
-1158.673685024314
 20
431.0891139264696
 30
0.0
 11
71.82631497568582
 21
431.0891139264696
 31
0.0
  0
LINE
  5
267
330
257
100
AcDbEntity
  8
_0-1_荳_闊_
  6
Continuous
 62
     7
100
AcDbLine
 10
71.82631497568582
 20
431.0891139264696
 30
0.0
 11
71.82631497568585
 21
481.0891139264696
 31
0.0
  0
LINE
  5
268
330
257
100
AcDbEntity
  8
_0-1_荳_闊_
  6
Continuous
 62
     7
100
AcDbLine
 10
71.82631497568585
 20
481.0891139264696
 30
0.0
 11
-1208.673685024314
 21
481.0891139264696
 31
0.0
  0
LINE
  5
269
330
257
100
AcDbEntity
  8
_0-1_荳_闊_
  6
Continuous
 62
     7
100
AcDbLine
 10
-1264.673685024314
 20
537.0891139264696
 30
0.0
 11
-1214.673685024314
 21
487.0891139264696
 31
0.0
  0
LINE
  5
26A
330
257
100
AcDbEntity
  8
_0-1_荳_闊_
  6
Continuous
 62
     7
100
AcDbLine
 10
-1214.673685024314
 20
487.0891139264696
 30
0.0
 11
71.82631497568582
 21
487.0891139264696
 31
0.0
  0
LINE
  5
26B
330
257
100
AcDbEntity
  8
_0-1_荳_闊_
  6
Continuous
 62
     7
100
AcDbLine
 10
71.82631497568582
 20
487.0891139264696
 30
0.0
 11
71.82631497568585
 21
537.0891139264696
 31
0.0
  0
LINE
  5
26C
330
257
100
AcDbEntity
  8
_0-1_荳_闊_
  6
Continuous
 62
     7
100
AcDbLine
 10
71.82631497568585
 20
537.0891139264696
 30
0.0
 11
-1264.673685024314
 21
537.0891139264696
 31
0.0
  0
LINE
  5
26D
330
257
100
AcDbEntity
  8
_0-1_荳_闊_
  6
Continuous
 62
     7
100
AcDbLine
 10
-1320.673685024314
 20
593.0891139264696
 30
0.0
 11
-1270.673685024314
 21
543.0891139264696
 31
0.0
  0
LINE
  5
26E
330
257
100
AcDbEntity
  8
_0-1_荳_闊_
  6
Continuous
 62
     7
100
AcDbLine
 10
-1270.673685024314
 20
543.0891139264696
 30
0.0
 11
71.82631497568582
 21
543.0891139264696
 31
0.0
  0
LINE
  5
26F
330
257
100
AcDbEntity
  8
_0-1_荳_闊_
  6
Continuous
 62
     7
100
AcDbLine
 10
71.82631497568582
 20
543.0891139264696
 30
0.0
 11
71.82631497568585
 21
593.0891139264696
 31
0.0
  0
LINE
  5
270
330
257
100
AcDbEntity
  8
_0-1_荳_闊_
  6
Continuous
 62
     7
100
AcDbLine
 10
71.82631497568585
 20
593.0891139264696
 30
0.0
 11
-1320.673685024314
 21
593.0891139264696
 31
0.0
  0
LINE
  5
271
330
257
100
AcDbEntity
  8
_0-1_荳_闊_
  6
Continuous
 62
     7
100
AcDbLine
 10
-1376.673685024314
 20
649.0891139264696
 30
0.0
 11
-1326.673685024314
 21
599.0891139264696
 31
0.0
  0
LINE
  5
272
330
257
100
AcDbEntity
  8
_0-1_荳_闊_
  6
Continuous
 62
     7
100
AcDbLine
 10
-1326.673685024314
 20
599.0891139264696
 30
0.0
 11
71.82631497568582
 21
599.0891139264696
 31
0.0
  0
LINE
  5
273
330
257
100
AcDbEntity
  8
_0-1_荳_闊_
  6
Continuous
 62
     7
100
AcDbLine
 10
71.82631497568582
 20
599.0891139264696
 30
0.0
 11
71.82631497568585
 21
649.0891139264696
 31
0.0
  0
LINE
  5
274
330
257
100
AcDbEntity
  8
_0-1_荳_闊_
  6
Continuous
 62
     7
100
AcDbLine
 10
71.82631497568585
 20
649.0891139264696
 30
0.0
 11
-1376.673685024314
 21
649.0891139264696
 31
0.0
  0
LINE
  5
275
330
257
100
AcDbEntity
  8
_0-1_荳_闊_
  6
Continuous
 62
     7
100
AcDbLine
 10
-1432.673685024314
 20
705.0891139264696
 30
0.0
 11
-1382.673685024314
 21
655.0891139264696
 31
0.0
  0
LINE
  5
276
330
257
100
AcDbEntity
  8
_0-1_荳_闊_
  6
Continuous
 62
     7
100
AcDbLine
 10
-1382.673685024314
 20
655.0891139264696
 30
0.0
 11
71.82631497568582
 21
655.0891139264696
 31
0.0
  0
LINE
  5
277
330
257
100
AcDbEntity
  8
_0-1_荳_闊_
  6
Continuous
 62
     7
100
AcDbLine
 10
71.82631497568582
 20
655.0891139264696
 30
0.0
 11
71.82631497568585
 21
705.0891139264696
 31
0.0
  0
LINE
  5
278
330
257
100
AcDbEntity
  8
_0-1_荳_闊_
  6
Continuous
 62
     7
100
AcDbLine
 10
71.82631497568585
 20
705.0891139264696
 30
0.0
 11
-1432.673685024314
 21
705.0891139264696
 31
0.0
  0
ENDBLK
  5
279
330
257
100
AcDbEntity
  8
0
100
AcDbBlockEnd
  0
BLOCK
  5
27A
330
27B
100
AcDbEntity
  8
0
100
AcDbBlockBegin
  2
-038-繧_繝_繝_繝__7-1
 70
     0
 10
0.0
 20
0.0
 30
0.0
  3
-038-繧_繝_繝_繝__7-1
  1

  0
LINE
  5
27C
330
27B
100
AcDbEntity
  8
_0-1_荳_闊_
  6
Continuous
 62
     7
100
AcDbLine
 10
-998.4624045730396
 20
264.5138724445104
 30
0.0
 11
-993.8556655396536
 21
259.9071334111244
 31
0.0
  0
LINE
  5
27D
330
27B
100
AcDbEntity
  8
_0-1_荳_闊_
  6
Continuous
 62
     7
100
AcDbLine
 10
-993.8556655396536
 20
259.9071334111244
 30
0.0
 11
-993.8556655396536
 21
-802.5928665888754
 31
0.0
  0
LINE
  5
27E
330
27B
100
AcDbEntity
  8
_0-1_荳_闊_
  6
Continuous
 62
     7
100
AcDbLine
 10
-993.8556655396536
 20
-802.5928665888754
 30
0.0
 11
-1043.855665539654
 21
-802.5928665888754
 31
0.0
  0
LINE
  5
27F
330
27B
100
AcDbEntity
  8
_0-1_荳_闊_
  6
Continuous
 62
     7
100
AcDbLine
 10
-1043.855665539654
 20
-802.5928665888754
 30
0.0
 11
-1043.855665539654
 21
309.9071334111244
 31
0.0
  0
LINE
  5
280
330
27B
100
AcDbEntity
  8
_0-1_荳_闊_
  6
Continuous
 62
     7
100
AcDbLine
 10
-1043.855665539654
 20
309.9071334111244
 30
0.0
 11
-998.4624045730396
 21
264.5138724445104
 31
0.0
  0
LINE
  5
281
330
27B
100
AcDbEntity
  8
_0-1_荳_闊_
  6
Continuous
 62
     7
100
AcDbLine
 10
-1099.855665539654
 20
365.9071334111242
 30
0.0
 11
-1049.855665539654
 21
315.9071334111242
 31
0.0
  0
LINE
  5
282
330
27B
100
AcDbEntity
  8
_0-1_荳_闊_
  6
Continuous
 62
     7
100
AcDbLine
 10
-1049.855665539654
 20
315.9071334111242
 30
0.0
 11
-1049.855665539654
 21
-802.5928665888754
 31
0.0
  0
LINE
  5
283
330
27B
100
AcDbEntity
  8
_0-1_荳_闊_
  6
Continuous
 62
     7
100
AcDbLine
 10
-1049.855665539654
 20
-802.5928665888754
 30
0.0
 11
-1099.855665539654
 21
-802.5928665888754
 31
0.0
  0
LINE
  5
284
330
27B
100
AcDbEntity
  8
_0-1_荳_闊_
  6
Continuous
 62
     7
100
AcDbLine
 10
-1099.855665539654
 20
-802.5928665888754
 30
0.0
 11
-1099.855665539654
 21
365.9071334111242
 31
0.0
  0
LINE
  5
285
330
27B
100
AcDbEntity
  8
_0-1_荳_闊_
  6
Continuous
 62
     7
100
AcDbLine
 10
-1155.855665539654
 20
421.9071334111244
 30
0.0
 11
-1105.855665539654
 21
371.9071334111244
 31
0.0
  0
LINE
  5
286
330
27B
100
AcDbEntity
  8
_0-1_荳_闊_
  6
Continuous
 62
     7
100
AcDbLine
 10
-1105.855665539654
 20
371.9071334111244
 30
0.0
 11
-1105.855665539654
 21
-802.5928665888754
 31
0.0
  0
LINE
  5
287
330
27B
100
AcDbEntity
  8
_0-1_荳_闊_
  6
Continuous
 62
     7
100
AcDbLine
 10
-1105.855665539654
 20
-802.5928665888754
 30
0.0
 11
-1155.855665539654
 21
-802.5928665888754
 31
0.0
  0
LINE
  5
288
330
27B
100
AcDbEntity
  8
_0-1_荳_闊_
  6
Continuous
 62
     7
100
AcDbLine
 10
-1155.855665539654
 20
-802.5928665888754
 30
0.0
 11
-1155.855665539654
 21
421.9071334111244
 31
0.0
  0
LINE
  5
289
330
27B
100
AcDbEntity
  8
_0-1_荳_闊_
  6
Continuous
 62
     7
100
AcDbLine
 10
-1211.855665539654
 20
477.9071334111244
 30
0.0
 11
-1161.855665539654
 21
427.9071334111242
 31
0.0
  0
LINE
  5
28A
330
27B
100
AcDbEntity
  8
_0-1_荳_闊_
  6
Continuous
 62
     7
100
AcDbLine
 10
-1161.855665539654
 20
427.9071334111242
 30
0.0
 11
-1161.855665539654
 21
-802.5928665888754
 31
0.0
  0
LINE
  5
28B
330
27B
100
AcDbEntity
  8
_0-1_荳_闊_
  6
Continuous
 62
     7
100
AcDbLine
 10
-1161.855665539654
 20
-802.5928665888754
 30
0.0
 11
-1211.855665539654
 21
-802.5928665888754
 31
0.0
  0
LINE
  5
28C
330
27B
100
AcDbEntity
  8
_0-1_荳_闊_
  6
Continuous
 62
     7
100
AcDbLine
 10
-1211.855665539654
 20
-802.5928665888754
 30
0.0
 11
-1211.855665539654
 21
477.9071334111244
 31
0.0
  0
LINE
  5
28D
330
27B
100
AcDbEntity
  8
_0-1_荳_闊_
  6
Continuous
 62
     7
100
AcDbLine
 10
-1267.855665539654
 20
533.9071334111248
 30
0.0
 11
-1217.855665539654
 21
483.9071334111244
 31
0.0
  0
LINE
  5
28E
330
27B
100
AcDbEntity
  8
_0-1_荳_闊_
  6
Continuous
 62
     7
100
AcDbLine
 10
-1217.855665539654
 20
483.9071334111244
 30
0.0
 11
-1217.855665539654
 21
-802.5928665888754
 31
0.0
  0
LINE
  5
28F
330
27B
100
AcDbEntity
  8
_0-1_荳_闊_
  6
Continuous
 62
     7
100
AcDbLine
 10
-1217.855665539654
 20
-802.5928665888754
 30
0.0
 11
-1267.855665539654
 21
-802.5928665888754
 31
0.0
  0
LINE
  5
290
330
27B
100
AcDbEntity
  8
_0-1_荳_闊_
  6
Continuous
 62
     7
100
AcDbLine
 10
-1267.855665539654
 20
-802.5928665888754
 30
0.0
 11
-1267.855665539654
 21
533.9071334111248
 31
0.0
  0
LINE
  5
291
330
27B
100
AcDbEntity
  8
_0-1_荳_闊_
  6
Continuous
 62
     7
100
AcDbLine
 10
-1323.855665539654
 20
589.9071334111246
 30
0.0
 11
-1273.855665539654
 21
539.9071334111242
 31
0.0
  0
LINE
  5
292
330
27B
100
AcDbEntity
  8
_0-1_荳_闊_
  6
Continuous
 62
     7
100
AcDbLine
 10
-1273.855665539654
 20
539.9071334111242
 30
0.0
 11
-1273.855665539654
 21
-802.5928665888754
 31
0.0
  0
LINE
  5
293
330
27B
100
AcDbEntity
  8
_0-1_荳_闊_
  6
Continuous
 62
     7
100
AcDbLine
 10
-1273.855665539654
 20
-802.5928665888754
 30
0.0
 11
-1323.855665539654
 21
-802.5928665888754
 31
0.0
  0
LINE
  5
294
330
27B
100
AcDbEntity
  8
_0-1_荳_闊_
  6
Continuous
 62
     7
100
AcDbLine
 10
-1323.855665539654
 20
-802.5928665888754
 30
0.0
 11
-1323.855665539654
 21
589.9071334111246
 31
0.0
  0
LINE
  5
295
330
27B
100
AcDbEntity
  8
_0-1_荳_闊_
  6
Continuous
 62
     7
100
AcDbLine
 10
-1379.855665539654
 20
645.9071334111246
 30
0.0
 11
-1329.855665539654
 21
595.9071334111246
 31
0.0
  0
LINE
  5
296
330
27B
100
AcDbEntity
  8
_0-1_荳_闊_
  6
Continuous
 62
     7
100
AcDbLine
 10
-1329.855665539654
 20
595.9071334111246
 30
0.0
 11
-1329.855665539654
 21
-802.5928665888754
 31
0.0
  0
LINE
  5
297
330
27B
100
AcDbEntity
  8
_0-1_荳_闊_
  6
Continuous
 62
     7
100
AcDbLine
 10
-1329.855665539654
 20
-802.5928665888754
 30
0.0
 11
-1379.855665539654
 21
-802.5928665888754
 31
0.0
  0
LINE
  5
298
330
27B
100
AcDbEntity
  8
_0-1_荳_闊_
  6
Continuous
 62
     7
100
AcDbLine
 10
-1379.855665539654
 20
-802.5928665888754
 30
0.0
 11
-1379.855665539654
 21
645.9071334111246
 31
0.0
  0
LINE
  5
299
330
27B
100
AcDbEntity
  8
_0-1_荳_闊_
  6
Continuous
 62
     7
100
AcDbLine
 10
-1435.855665539654
 20
701.9071334111244
 30
0.0
 11
-1385.855665539654
 21
651.9071334111242
 31
0.0
  0
LINE
  5
29A
330
27B
100
AcDbEntity
  8
_0-1_荳_闊_
  6
Continuous
 62
     7
100
AcDbLine
 10
-1385.855665539654
 20
651.9071334111242
 30
0.0
 11
-1385.855665539654
 21
-802.5928665888754
 31
0.0
  0
LINE
  5
29B
330
27B
100
AcDbEntity
  8
_0-1_荳_闊_
  6
Continuous
 62
     7
100
AcDbLine
 10
-1385.855665539654
 20
-802.5928665888754
 30
0.0
 11
-1435.855665539654
 21
-802.5928665888754
 31
0.0
  0
LINE
  5
29C
330
27B
100
AcDbEntity
  8
_0-1_荳_闊_
  6
Continuous
 62
     7
100
AcDbLine
 10
-1435.855665539654
 20
-802.5928665888754
 30
0.0
 11
-1435.855665539654
 21
701.9071334111244
 31
0.0
  0
ENDBLK
  5
29D
330
27B
100
AcDbEntity
  8
0
100
AcDbBlockEnd
  0
BLOCK
  5
29E
330
29F
100
AcDbEntity
  8
0
100
AcDbBlockBegin
  2
-039-繧_繝_繝_繝__8-1
 70
     0
 10
0.0
 20
0.0
 30
0.0
  3
-039-繧_繝_繝_繝__8-1
  1

  0
LINE
  5
2A0
330
29F
100
AcDbEntity
  8
_0-1_荳_闊_
  6
繝_繧_繝_繧_繧_繝__24
 62
     7
100
AcDbLine
 10
-1425.855665539654
 20
624.378435807815
 30
0.0
 11
-1012.489803698754
 21
211.0125739669143
 31
0.0
  0
LINE
  5
2A1
330
29F
100
AcDbEntity
  8
_0-1_荳_闊_
  6
繝_繧_繝_繧_繧_繝__24
 62
     7
100
AcDbLine
 10
-1425.855665539654
 20
624.378435807815
 30
0.0
 11
-1425.855665539654
 21
691.9071334111305
 31
0.0
  0
LINE
  5
2A2
330
29F
100
AcDbEntity
  8
_0-1_荳_闊_
  6
繝_繧_繝_繧_繧_繝__24
 62
     7
100
AcDbLine
 10
-1003.855665539654
 20
219.6467121260125
 30
0.0
 11
-1003.855665539654
 21
269.9071334111299
 31
0.0
  0
LINE
  5
2A3
330
29F
100
AcDbEntity
  8
_0-1_荳_闊_
  6
繝_繧_繝_繧_繧_繝__24
 62
     7
100
AcDbLine
 10
-1003.855665539654
 20
219.6467121260125
 30
0.0
 11
-1012.489803698753
 21
211.0125739669142
 31
0.0
  0
LINE
  5
2A4
330
29F
100
AcDbEntity
  8
_0-1_荳_闊_
  6
繝_繧_繝_繧_繧_繝__24
 62
     7
100
AcDbLine
 10
-1355.144987420967
 20
695.0891139264628
 30
0.0
 11
-941.7791255799322
 21
281.7232520854271
 31
0.0
  0
LINE
  5
2A5
330
29F
100
AcDbEntity
  8
_0-1_荳_闊_
  6
繝_繧_繝_繧_繧_繝__24
 62
     7
100
AcDbLine
 10
-1355.144987420967
 20
695.0891139264628
 30
0.0
 11
-1422.673685024307
 21
695.0891139264628
 31
0.0
  0
LINE
  5
2A6
330
29F
100
AcDbEntity
  8
_0-1_荳_闊_
  6
繝_繧_繝_繧_繧_繝__24
 62
     7
100
AcDbLine
 10
-950.4132637390313
 20
273.0891139263279
 30
0.0
 11
-1000.673685024149
 21
273.0891139263279
 31
0.0
  0
LINE
  5
2A7
330
29F
100
AcDbEntity
  8
_0-1_荳_闊_
  6
繝_繧_繝_繧_繧_繝__24
 62
     7
100
AcDbLine
 10
-950.4132637390313
 20
273.0891139263279
 30
0.0
 11
-941.7791255799322
 21
281.7232520854271
 31
0.0
  0
LINE
  5
2A8
330
29F
100
AcDbEntity
  8
_0-1_荳_闊_
  6
繝_繧_繝_繧_繧_繝__24
 62
     7
100
AcDbLine
 10
-1118.473513326429
 20
338.1621981011947
 30
0.0
 11
-1068.97603864337
 21
387.659672784253
 31
0.0
  0
LINE
  5
2A9
330
29F
100
AcDbEntity
  8
_0-1_荳_闊_
  6
繝_繧_繝_繧_繧_繝__24
 62
     7
100
AcDbLine
 10
-1068.97603864337
 20
387.659672784253
 30
0.0
 11
-1064.733397956251
 21
383.4170320971338
 31
0.0
  0
LINE
  5
2AA
330
29F
100
AcDbEntity
  8
_0-1_荳_闊_
  6
繝_繧_繝_繧_繧_繝__24
 62
     7
100
AcDbLine
 10
-1064.733397956251
 20
383.4170320971338
 30
0.0
 11
-1114.230872639309
 21
333.9195574140754
 31
0.0
  0
LINE
  5
2AB
330
29F
100
AcDbEntity
  8
_0-1_荳_闊_
  6
繝_繧_繝_繧_繧_繝__24
 62
     7
100
AcDbLine
 10
-1114.230872639309
 20
333.9195574140754
 30
0.0
 11
-1118.473513326429
 21
338.1621981011947
 31
0.0
  0
LINE
  5
2AC
330
29F
100
AcDbEntity
  8
_0-1_荳_闊_
  6
Continuous
 62
     7
100
AcDbLine
 10
-1089.482135297781
 20
358.6682947556042
 30
0.0
 11
-1095.575833024281
 21
364.7643216475258
 31
0.0
  0
LINE
  5
2AD
330
29F
100
AcDbEntity
  8
_0-1_荳_闊_
  6
繝_繧_繝_繧_繧_繝__24
 62
     7
100
AcDbLine
 10
-1361.718241536725
 20
581.4069263114503
 30
0.0
 11
-1312.220766853675
 21
630.9044009945168
 31
0.0
  0
LINE
  5
2AE
330
29F
100
AcDbEntity
  8
_0-1_荳_闊_
  6
繝_繧_繝_繧_繧_繝__24
 62
     7
100
AcDbLine
 10
-1312.220766853675
 20
630.9044009945168
 30
0.0
 11
-1307.978126166555
 21
626.6617603073981
 31
0.0
  0
LINE
  5
2AF
330
29F
100
AcDbEntity
  8
_0-1_荳_闊_
  6
繝_繧_繝_繧_繧_繝__24
 62
     7
100
AcDbLine
 10
-1307.978126166555
 20
626.6617603073981
 30
0.0
 11
-1357.475600849605
 21
577.1642856243317
 31
0.0
  0
LINE
  5
2B0
330
29F
100
AcDbEntity
  8
_0-1_荳_闊_
  6
繝_繧_繝_繧_繧_繝__24
 62
     7
100
AcDbLine
 10
-1357.475600849605
 20
577.1642856243317
 30
0.0
 11
-1361.718241536725
 21
581.4069263114503
 31
0.0
  0
LINE
  5
2B1
330
29F
100
AcDbEntity
  8
_0-1_荳_闊_
  6
Continuous
 62
     7
100
AcDbLine
 10
-990.6736850241881
 20
263.0891139263436
 30
0.0
 11
-993.8556655395276
 21
259.9071334110036
 31
0.0
  0
LINE
  5
2B2
330
29F
100
AcDbEntity
  8
_0-1_荳_闊_
  6
Continuous
 62
     7
100
AcDbLine
 10
-993.8556655395276
 20
259.9071334110036
 30
0.0
 11
-1435.855665539654
 21
701.9071334111305
 31
0.0
  0
LINE
  5
2B3
330
29F
100
AcDbEntity
  8
_0-1_荳_闊_
  6
Continuous
 62
     7
100
AcDbLine
 10
-1435.855665539654
 20
701.9071334111305
 30
0.0
 11
-1432.673685024314
 21
705.0891139264696
 31
0.0
  0
LINE
  5
2B4
330
29F
100
AcDbEntity
  8
_0-1_荳_闊_
  6
Continuous
 62
     7
100
AcDbLine
 10
-1432.673685024314
 20
705.0891139264696
 30
0.0
 11
-990.6736850241881
 21
263.0891139263436
 31
0.0
  0
LINE
  5
2B5
330
29F
100
AcDbEntity
  8
_0-1_荳_闊_
  6
Continuous
 62
     7
100
AcDbLine
 10
-1222.871779854529
 20
471.0160190962539
 30
0.0
 11
-1202.578065838275
 21
491.3097331125115
 31
0.0
  0
ENDBLK
  5
2B6
330
29F
100
AcDbEntity
  8
0
100
AcDbBlockEnd
  0
BLOCK
  5
2B7
330
2B8
100
AcDbEntity
  8
0
100
AcDbBlockBegin
  2
-040-_D42
 70
     0
 10
0.0
 20
0.0
 30
0.0
  3
-040-_D42
  1

  0
LINE
  5
2B9
330
2B8
100
AcDbEntity
  8
_0-a__0-2_蟇_豕__ts
  6
Continuous
 62
     7
100
AcDbLine
 10
-978.9095928173538
 20
266.0140702138746
 30
0.0
 11
-915.6388029743706
 21
266.0140702138746
 31
0.0
  0
LINE
  5
2BA
330
2B8
100
AcDbEntity
  8
_0-a__0-2_蟇_豕__ts
  6
Continuous
 62
     7
100
AcDbLine
 10
-982.0915733326933
 20
262.8320896985346
 30
0.0
 11
-915.6388029743706
 21
262.8320896985346
 31
0.0
  0
LINE
  5
2BB
330
2B8
100
AcDbEntity
  8
_0-e__0-2_蟇_豕___7-1
  6
Continuous
 62
     7
100
AcDbLine
 10
-925.6388029743706
 20
266.0140702138746
 30
0.0
 11
-925.6388029743706
 21
262.8320896985346
 31
0.0
  0
LINE
  5
2BC
330
2B8
100
AcDbEntity
  8
_0-a__0-2_蟇_豕__ts
  6
Continuous
 62
     7
100
AcDbLine
 10
-925.6388029743706
 20
272.0137040029371
 30
0.0
 11
-925.6388029743706
 21
278.0133377919996
 31
0.0
  0
LINE
  5
2BD
330
2B8
100
AcDbEntity
  8
_0-a__0-2_蟇_豕__ts
  6
Continuous
 62
     7
100
AcDbLine
 10
-925.6388029743706
 20
256.8324559094721
 30
0.0
 11
-925.6388029743706
 21
250.8328221204096
 31
0.0
  0
INSERT
  5
2BE
330
2B8
100
AcDbEntity
  8
_0-2_蟇_豕__
100
AcDbBlockReference
  2
-001-VW_EMPTYBALL
 10
-925.6388029743706
 20
266.0140702138746
 30
0.0
 41
5.9996337890625
 42
5.9996337890625
 50
270.0
  0
INSERT
  5
2BF
330
2B8
100
AcDbEntity
  8
_0-a__0-2_蟇_豕__ts
100
AcDbBlockReference
  2
-001-VW_EMPTYBALL
 10
-925.6388029743706
 20
262.8320896985346
 30
0.0
 41
5.9996337890625
 42
5.9996337890625
 50
90.0
  0
TEXT
  5
2C0
330
2B8
100
AcDbEntity
  8
_1-b__0-f__0-2_蟇_豕___6-1
 62
     7
100
AcDbText
 10
-930.6388029743706
 20
258.3304285890171
 30
0.0
 40
24.37060546875
  1
3
 50
90.0
100
AcDbText
  0
POINT
  5
2C1
330
2B8
100
AcDbEntity
  8
_1-6__0-7__0-3_Defpoints
 62
     7
100
AcDbPoint
 10
-988.9095928173538
 20
266.0140702138746
 30
0.0
  0
POINT
  5
2C2
330
2B8
100
AcDbEntity
  8
_1-6__0-7__0-3_Defpoints
 62
     7
100
AcDbPoint
 10
-992.0915733326933
 20
262.8320896985346
 30
0.0
  0
POINT
  5
2C3
330
2B8
100
AcDbEntity
  8
_1-6__0-7__0-3_Defpoints
 62
     7
100
AcDbPoint
 10
-925.6388029743706
 20
262.8320896985346
 30
0.0
  0
ENDBLK
  5
2C4
330
2B8
100
AcDbEntity
  8
0
100
AcDbBlockEnd
  0
ENDSEC
  0
SECTION
  2
ENTITIES
  0
LINE
  5
2C5
330
1D
100
AcDbEntity
  8
_0-a__0-2_蟇_豕__ts
  6
Continuous
 62
     7
100
AcDbLine
 10
1253.381482263221
 20
1771.721325872217
 30
0.0
 11
1253.381482263221
 21
1805.597528397406
 31
0.0
  0
LINE
  5
2C6
330
1D
100
AcDbEntity
  8
_0-a__0-2_蟇_豕__ts
  6
Continuous
 62
     7
100
AcDbLine
 10
1262.881482263221
 20
1659.997919040524
 30
0.0
 11
1262.881482263221
 21
1805.597528397406
 31
0.0
  0
INSERT
  5
2C7
330
1D
100
AcDbEntity
  8
_0-1_荳_闊_
100
AcDbBlockReference
  2
-000-繧_繝_繝_繝__1
 10
1181.555167287535
 20
952.408805114059
 30
0.0
  0
INSERT
  5
2C8
330
1D
100
AcDbEntity
  8
_0-a__0-2_蟇_豕__ts
100
AcDbBlockReference
  2
-002-_D2
 10
1179.7910750807
 20
949.483848826528
 30
0.0
  0
INSERT
  5
2C9
330
1D
100
AcDbEntity
  8
_0-a__0-2_蟇_豕__ts
100
AcDbBlockReference
  2
-003-_D3
 10
1179.7910750807
 20
949.483848826528
 30
0.0
  0
LINE
  5
2CA
330
1D
100
AcDbEntity
  8
_0-1_荳_闊_
  6
繝_繧_繝_繧_繧_繝__24
 62
     7
100
AcDbLine
 10
483.3814822632206
 20
1653.497919040522
 30
0.0
 11
523.3814822632206
 21
1653.497919040522
 31
0.0
  0
LINE
  5
2CB
330
1D
100
AcDbEntity
  8
_0-1_荳_闊_
  6
繝_繧_繝_繧_繧_繝__24
 62
     7
100
AcDbLine
 10
523.3814822632206
 20
1653.497919040522
 30
0.0
 11
523.3814822632206
 21
1219.497919040523
 31
0.0
  0
LINE
  5
2CC
330
1D
100
AcDbEntity
  8
_0-1_荳_闊_
  6
繝_繧_繝_繧_繧_繝__24
 62
     7
100
AcDbLine
 10
523.3814822632206
 20
1219.497919040523
 30
0.0
 11
483.3814822632206
 21
1219.497919040523
 31
0.0
  0
LINE
  5
2CD
330
1D
100
AcDbEntity
  8
_0-1_荳_闊_
  6
繝_繧_繝_繧_繧_繝__24
 62
     7
100
AcDbLine
 10
483.3814822632206
 20
1219.497919040523
 30
0.0
 11
483.3814822632206
 21
1653.497919040522
 31
0.0
  0
INSERT
  5
2CE
330
1D
100
AcDbEntity
  8
_0-2_蟇_豕__
100
AcDbBlockReference
  2
-004-_D4
 10
1179.7910750807
 20
949.483848826528
 30
0.0
  0
LINE
  5
2CF
330
1D
100
AcDbEntity
  8
_0-1_荳_闊_
  6
Continuous
 62
     7
100
AcDbLine
 10
2034.543925378943
 20
1228.997919040523
 30
0.0
 11
2034.543925378943
 21
1436.497919040523
 31
0.0
  0
LINE
  5
2D0
330
1D
100
AcDbEntity
  8
_0-1_荳_闊_
  6
Continuous
 62
     7
100
AcDbLine
 10
2034.543925378943
 20
1643.997919040523
 30
0.0
 11
2034.543925378943
 21
1436.497919040523
 31
0.0
  0
LINE
  5
2D1
330
1D
100
AcDbEntity
  8
_0-1_荳_闊_
  6
Continuous
 62
     7
100
AcDbLine
 10
2034.543925378943
 20
1643.997919040523
 30
0.0
 11
2034.543925378943
 21
1436.497919040523
 31
0.0
  0
INSERT
  5
2D2
330
1D
100
AcDbEntity
  8
_0-a__0-2_蟇_豕__ts
100
AcDbBlockReference
  2
-005-_D5
 10
1179.7910750807
 20
949.483848826528
 30
0.0
  0
INSERT
  5
2D3
330
1D
100
AcDbEntity
  8
_0-a__0-2_蟇_豕__ts
100
AcDbBlockReference
  2
-006-_D6
 10
1179.7910750807
 20
949.483848826528
 30
0.0
  0
INSERT
  5
2D4
330
1D
100
AcDbEntity
  8
_0-a__0-2_蟇_豕__ts
100
AcDbBlockReference
  2
-007-_D7
 10
1179.7910750807
 20
949.483848826528
 30
0.0
  0
LINE
  5
2D5
330
1D
100
AcDbEntity
  8
_1-0__0-2_蟇_豕___1
  6
Continuous
 62
     7
100
AcDbLine
 10
1872.543938032808
 20
1223.997919040523
 30
0.0
 11
1872.543938032808
 21
1231.997919040523
 31
0.0
  0
INSERT
  5
2D6
330
1D
100
AcDbEntity
  8
_0-a__0-2_蟇_豕__ts
100
AcDbBlockReference
  2
-008-_D8
 10
1179.7910750807
 20
949.483848826528
 30
0.0
  0
LINE
  5
2D7
330
1D
100
AcDbEntity
  8
_0-1_荳_闊_
  6
Continuous
 62
     7
100
AcDbLine
 10
2083.621659147885
 20
159.767331170237
 30
0.0
 11
2195.621659147884
 21
291.7673311702365
 31
0.0
  0
LINE
  5
2D8
330
1D
100
AcDbEntity
  8
_0-1_荳_闊_
  6
Continuous
 62
     7
100
AcDbLine
 10
2195.621659147884
 20
291.0173311702365
 30
0.0
 11
2195.621659147884
 21
373.0249040056041
 31
0.0
  0
LINE
  5
2D9
330
1D
100
AcDbEntity
  8
_0-1_荳_闊_
  6
繝_繧_繝_繧_繧_繝__24
 62
     7
100
AcDbLine
 10
1258.131482263231
 20
1263.997919040528
 30
0.0
 11
1263.131482263231
 21
1263.997919040528
 31
0.0
  0
ARC
  5
2DA
330
1D
100
AcDbEntity
  8
_0-1_荳_闊_
  6
繝_繧_繝_繧_繧_繝__24
 62
     7
100
AcDbCircle
 10
1263.131482263231
 20
1256.497919040528
 30
0.0
 40
7.5
100
AcDbArc
 50
270.0
 51
90.0
  0
LINE
  5
2DB
330
1D
100
AcDbEntity
  8
_0-1_荳_闊_
  6
繝_繧_繝_繧_繧_繝__24
 62
     7
100
AcDbLine
 10
1263.131482263231
 20
1248.997919040528
 30
0.0
 11
1258.131482263231
 21
1248.997919040528
 31
0.0
  0
LINE
  5
2DC
330
1D
100
AcDbEntity
  8
_0-1_荳_闊_
  6
繝_繧_繝_繧_繧_繝__24
 62
     7
100
AcDbLine
 10
1258.131482263231
 20
1248.997919040528
 30
0.0
 11
1258.131482263231
 21
1263.997919040528
 31
0.0
  0
LINE
  5
2DD
330
1D
100
AcDbEntity
  8
_0-1_荳_闊_
  6
繝_繧_繝_繧_繧_繝__24
 62
     7
100
AcDbLine
 10
1258.131482263231
 20
1608.997919040529
 30
0.0
 11
1263.131482263231
 21
1608.997919040529
 31
0.0
  0
ARC
  5
2DE
330
1D
100
AcDbEntity
  8
_0-1_荳_闊_
  6
繝_繧_繝_繧_繧_繝__24
 62
     7
100
AcDbCircle
 10
1263.131482263231
 20
1616.497919040529
 30
0.0
 40
7.5
100
AcDbArc
 50
270.0
 51
90.0
  0
LINE
  5
2DF
330
1D
100
AcDbEntity
  8
_0-1_荳_闊_
  6
繝_繧_繝_繧_繧_繝__24
 62
     7
100
AcDbLine
 10
1263.131482263231
 20
1623.997919040529
 30
0.0
 11
1258.131482263231
 21
1623.997919040529
 31
0.0
  0
LINE
  5
2E0
330
1D
100
AcDbEntity
  8
_0-1_荳_闊_
  6
繝_繧_繝_繧_繧_繝__24
 62
     7
100
AcDbLine
 10
1258.131482263231
 20
1623.997919040529
 30
0.0
 11
1258.131482263231
 21
1608.997919040529
 31
0.0
  0
LINE
  5
2E1
330
1D
100
AcDbEntity
  8
_0-1_荳_闊_
  6
Continuous
 62
     7
100
AcDbLine
 10
2034.543925378943
 20
192.5659385248
 30
0.0
 11
2034.543925378943
 21
92.56593852479955
 31
0.0
  0
LINE
  5
2E2
330
1D
100
AcDbEntity
  8
_0-1_荳_闊_
  6
Continuous
 62
     7
100
AcDbLine
 10
2419.543925378944
 20
177.5659385248
 30
0.0
 11
2419.543925378944
 21
107.5659385248
 31
0.0
  0
LINE
  5
2E3
330
1D
100
AcDbEntity
  8
_0-1_荳_闊_
  6
Continuous
 62
     7
100
AcDbLine
 10
2034.543925378943
 20
192.5659385248
 30
0.0
 11
2419.543925378944
 21
177.5659385248
 31
0.0
  0
LINE
  5
2E4
330
1D
100
AcDbEntity
  8
_0-1_荳_闊_
  6
Continuous
 62
     7
100
AcDbLine
 10
2034.543925378943
 20
92.56593852479955
 30
0.0
 11
2419.543925378944
 21
107.5659385248
 31
0.0
  0
LINE
  5
2E5
330
1D
100
AcDbEntity
  8
_0-1_荳_闊_
  6
繝_繧_繝_繧_繧_繝__24
 62
     7
100
AcDbLine
 10
2039.043925378943
 20
192.5659385248
 30
0.0
 11
2039.043925378943
 21
92.56593852479955
 31
0.0
  0
LINE
  5
2E6
330
1D
100
AcDbEntity
  8
_0-1_荳_闊_
  6
繝_繧_繝_繧_繧_繝__24
 62
     7
100
AcDbLine
 10
2413.543926108488
 20
177.5659385248
 30
0.0
 11
2413.543926108488
 21
107.5659385248
 31
0.0
  0
LINE
  5
2E7
330
1D
100
AcDbEntity
  8
_0-1_荳_闊_
  6
Continuous
 62
     7
100
AcDbLine
 10
2390.043925378943
 20
1335.888337211187
 30
0.0
 11
2040.543925378943
 21
1335.888337211187
 31
0.0
  0
ARC
  5
2E8
330
1D
100
AcDbEntity
  8
_0-1_荳_闊_
  6
Continuous
 62
     7
100
AcDbCircle
 10
2390.043925378943
 20
1365.388337211187
 30
0.0
 40
29.5
100
AcDbArc
 50
270.0
 51
322.807605820758
  0
LINE
  5
2E9
330
1D
100
AcDbEntity
  8
_0-1_荳_闊_
  6
Continuous
 62
     7
100
AcDbLine
 10
2034.543925378943
 20
1215.997919040522
 30
0.0
 11
2034.543925378943
 21
1639.728253482725
 31
0.0
  0
LINE
  5
2EA
330
1D
100
AcDbEntity
  8
_0-1_荳_闊_
  6
Continuous
 62
     7
100
AcDbLine
 10
2390.043925378943
 20
1341.888337211187
 30
0.0
 11
2040.543925378943
 21
1341.888337211187
 31
0.0
  0
ARC
  5
2EB
330
1D
100
AcDbEntity
  8
_0-1_荳_闊_
  6
Continuous
 62
     7
100
AcDbCircle
 10
2390.043925378943
 20
1366.888337211187
 30
0.0
 40
25.0
100
AcDbArc
 50
270.0
 51
340.0515564111974
  0
INSERT
  5
2EC
330
1D
100
AcDbEntity
  8
_0-a__0-2_蟇_豕__ts
100
AcDbBlockReference
  2
-009-_D9
 10
1179.7910750807
 20
949.483848826528
 30
0.0
  0
INSERT
  5
2ED
330
1D
100
AcDbEntity
  8
_0-a__0-2_蟇_豕__ts
100
AcDbBlockReference
  2
-010-_D10
 10
1179.7910750807
 20
949.483848826528
 30
0.0
  0
INSERT
  5
2EE
330
1D
100
AcDbEntity
  8
_0-a__0-2_蟇_豕__ts
100
AcDbBlockReference
  2
-011-_D11
 10
1179.7910750807
 20
949.483848826528
 30
0.0
  0
LINE
  5
2EF
330
1D
100
AcDbEntity
  8
_0-1_荳_闊_
  6
Continuous
 62
     7
100
AcDbLine
 10
2390.043925378943
 20
1286.390862528128
 30
0.0
 11
2040.543925378943
 21
1286.390862528128
 31
0.0
  0
ARC
  5
2F0
330
1D
100
AcDbEntity
  8
_0-1_荳_闊_
  6
Continuous
 62
     7
100
AcDbCircle
 10
2390.043925378943
 20
1315.890862528128
 30
0.0
 40
29.5
100
AcDbArc
 50
270.0
 51
322.807605820758
  0
LINE
  5
2F1
330
1D
100
AcDbEntity
  8
_0-1_荳_闊_
  6
Continuous
 62
     7
100
AcDbLine
 10
2390.043925378943
 20
1580.604975552917
 30
0.0
 11
2040.543925378943
 21
1580.604975552917
 31
0.0
  0
ARC
  5
2F2
330
1D
100
AcDbEntity
  8
_0-1_荳_闊_
  6
Continuous
 62
     7
100
AcDbCircle
 10
2390.043925378943
 20
1551.104975552917
 30
0.0
 40
29.50000000000006
100
AcDbArc
 50
37.19239417924198
 51
90.0
  0
LINE
  5
2F3
330
1D
100
AcDbEntity
  8
_0-1_荳_闊_
  6
Continuous
 62
     7
100
AcDbLine
 10
2390.043925378943
 20
1531.107500869859
 30
0.0
 11
2040.543925378943
 21
1531.107500869859
 31
0.0
  0
ARC
  5
2F4
330
1D
100
AcDbEntity
  8
_0-1_荳_闊_
  6
Continuous
 62
     7
100
AcDbCircle
 10
2390.043925378943
 20
1506.107500869859
 30
0.0
 40
24.99999999999999
100
AcDbArc
 50
19.9484435888026
 51
89.99999999999996
  0
LINE
  5
2F5
330
1D
100
AcDbEntity
  8
_0-1_荳_闊_
  6
Continuous
 62
     7
100
AcDbLine
 10
2390.043925378943
 20
1586.604975552917
 30
0.0
 11
2040.543925378943
 21
1586.604975552917
 31
0.0
  0
ARC
  5
2F6
330
1D
100
AcDbEntity
  8
_0-1_荳_闊_
  6
Continuous
 62
     7
100
AcDbCircle
 10
2390.043925378943
 20
1557.104975552917
 30
0.0
 40
29.50000000000006
100
AcDbArc
 50
37.19239417924198
 51
90.0
  0
LINE
  5
2F7
330
1D
100
AcDbEntity
  8
_0-1_荳_闊_
  6
繝_繧_繝_繧_繧_繝__22
 62
     7
100
AcDbLine
 10
2419.543925378943
 20
-70.5792168261811
 30
0.0
 11
2419.543925378943
 21
1975.590287927702
 31
0.0
  0
INSERT
  5
2F8
330
1D
100
AcDbEntity
  8
_0-1_荳_闊_
100
AcDbBlockReference
  2
-012-繧_繝_繝_繝__2-1
 10
1181.555167287535
 20
952.408805114059
 30
0.0
  0
LINE
  5
2F9
330
1D
100
AcDbEntity
  8
_0-1_荳_闊_
  6
Continuous
 62
     7
100
AcDbLine
 10
2419.543925378944
 20
167.5665016619498
 30
0.0
 11
2419.543925378944
 21
117.5665016619498
 31
0.0
  0
INSERT
  5
2FA
330
1D
100
AcDbEntity
  8
_0-a__0-2_蟇_豕__ts
100
AcDbBlockReference
  2
-013-_D13
 10
1179.7910750807
 20
949.483848826528
 30
0.0
  0
LINE
  5
2FB
330
1D
100
AcDbEntity
  8
_0-1_荳_闊_
  6
Continuous
 62
     7
100
AcDbLine
 10
2405.543925378943
 20
1227.497919040523
 30
0.0
 11
2405.543925378943
 21
1245.497919040523
 31
0.0
  0
LINE
  5
2FC
330
1D
100
AcDbEntity
  8
_0-1_荳_闊_
  6
Continuous
 62
     7
100
AcDbLine
 10
2405.543925378943
 20
1245.497919040523
 30
0.0
 11
2413.543925378943
 21
1245.497919040523
 31
0.0
  0
LINE
  5
2FD
330
1D
100
AcDbEntity
  8
_0-1_荳_闊_
  6
Continuous
 62
     7
100
AcDbLine
 10
2413.543925378943
 20
1245.497919040523
 30
0.0
 11
2413.543925378943
 21
1227.497919040523
 31
0.0
  0
LINE
  5
2FE
330
1D
100
AcDbEntity
  8
_0-1_荳_闊_
  6
Continuous
 62
     7
100
AcDbLine
 10
2413.543925378943
 20
1227.497919040523
 30
0.0
 11
2405.543925378943
 21
1227.497919040523
 31
0.0
  0
LINE
  5
2FF
330
1D
100
AcDbEntity
  8
_0-1_荳_闊_
  6
Continuous
 62
     7
100
AcDbLine
 10
-715.2089172875335
 20
-296.644528219274
 30
0.0
 11
3142.026982873865
 21
-296.644528219274
 31
0.0
  0
LINE
  5
300
330
1D
100
AcDbEntity
  8
_0-1_荳_闊_
  6
Continuous
 62
     7
100
AcDbLine
 10
3142.026982873865
 20
-296.644528219274
 30
0.0
 11
3142.026982873865
 21
-416.644528219274
 31
0.0
  0
LINE
  5
301
330
1D
100
AcDbEntity
  8
_0-1_荳_闊_
  6
Continuous
 62
     7
100
AcDbLine
 10
3142.026982873865
 20
-416.644528219274
 30
0.0
 11
-715.2089172875335
 21
-416.644528219274
 31
0.0
  0
LINE
  5
302
330
1D
100
AcDbEntity
  8
_0-1_荳_闊_
  6
Continuous
 62
     7
100
AcDbLine
 10
-715.2089172875335
 20
-416.644528219274
 30
0.0
 11
-715.2089172875335
 21
-296.644528219274
 31
0.0
  0
LINE
  5
303
330
1D
100
AcDbEntity
  8
_0-1_荳_闊_
  6
Continuous
 62
     7
100
AcDbLine
 10
963.2218627051599
 20
-296.644528219274
 30
0.0
 11
963.2218627051599
 21
-416.644528219274
 31
0.0
  0
INSERT
  5
304
330
1D
100
AcDbEntity
  8
_0-2_蟇_豕__
100
AcDbBlockReference
  2
-014-_D15
 10
1179.7910750807
 20
949.483848826528
 30
0.0
  0
INSERT
  5
305
330
1D
100
AcDbEntity
  8
_0-a__0-2_蟇_豕__ts
100
AcDbBlockReference
  2
-015-_D16
 10
1179.7910750807
 20
949.483848826528
 30
0.0
  0
INSERT
  5
306
330
1D
100
AcDbEntity
  8
_0-e__0-2_蟇_豕___7-1
100
AcDbBlockReference
  2
-016-_D17
 10
1179.7910750807
 20
949.483848826528
 30
0.0
  0
INSERT
  5
307
330
1D
100
AcDbEntity
  8
_0-1_荳_闊_
100
AcDbBlockReference
  2
-017-繧_繝_繝_繝__4-1
 10
1181.555167287535
 20
952.408805114059
 30
0.0
  0
INSERT
  5
308
330
1D
100
AcDbEntity
  8
_0-a__0-2_蟇_豕__ts
100
AcDbBlockReference
  2
-018-_D19
 10
1179.7910750807
 20
949.483848826528
 30
0.0
  0
INSERT
  5
309
330
1D
100
AcDbEntity
  8
_0-a__0-2_蟇_豕__ts
100
AcDbBlockReference
  2
-019-_D20
 10
1179.7910750807
 20
949.483848826528
 30
0.0
  0
LINE
  5
30A
330
1D
100
AcDbEntity
  8
_0-1_荳_闊_
  6
繝_繧_繝_繧_繧_繝__24
 62
     7
100
AcDbLine
 10
1110.631482263217
 20
1736.497919040388
 30
0.0
 11
1410.631482263315
 21
1736.497919040388
 31
0.0
  0
LINE
  5
30B
330
1D
100
AcDbEntity
  8
_0-1_荳_闊_
  6
繝_繧_繝_繧_繧_繝__24
 62
     7
100
AcDbLine
 10
1410.631482263315
 20
1736.497919040388
 30
0.0
 11
1410.631482263315
 21
1136.497919040339
 31
0.0
  0
LINE
  5
30C
330
1D
100
AcDbEntity
  8
_0-1_荳_闊_
  6
繝_繧_繝_繧_繧_繝__24
 62
     7
100
AcDbLine
 10
1410.631482263315
 20
1136.497919040339
 30
0.0
 11
1110.631482263217
 21
1136.497919040339
 31
0.0
  0
LINE
  5
30D
330
1D
100
AcDbEntity
  8
_0-1_荳_闊_
  6
繝_繧_繝_繧_繧_繝__24
 62
     7
100
AcDbLine
 10
1110.631482263217
 20
1136.497919040339
 30
0.0
 11
1110.631482263217
 21
1736.497919040388
 31
0.0
  0
LINE
  5
30E
330
1D
100
AcDbEntity
  8
_0-1_荳_闊_
  6
Continuous
 62
     7
100
AcDbLine
 10
1210.631482263231
 20
1658.372919040528
 30
0.0
 11
1210.631482263231
 21
1686.497919040529
 31
0.0
  0
LINE
  5
30F
330
1D
100
AcDbEntity
  8
_0-1_荳_闊_
  6
Continuous
 62
     7
100
AcDbLine
 10
1210.631482263231
 20
1686.497919040529
 30
0.0
 11
1310.631482263231
 21
1686.497919040529
 31
0.0
  0
LINE
  5
310
330
1D
100
AcDbEntity
  8
_0-1_荳_闊_
  6
Continuous
 62
     7
100
AcDbLine
 10
1310.631482263231
 20
1686.497919040529
 30
0.0
 11
1310.631482263231
 21
1186.497919040528
 31
0.0
  0
LINE
  5
311
330
1D
100
AcDbEntity
  8
_0-1_荳_闊_
  6
Continuous
 62
     7
100
AcDbLine
 10
1310.631482263231
 20
1186.497919040528
 30
0.0
 11
1210.631482263231
 21
1186.497919040528
 31
0.0
  0
LINE
  5
312
330
1D
100
AcDbEntity
  8
_0-1_荳_闊_
  6
Continuous
 62
     7
100
AcDbLine
 10
1210.631482263231
 20
1186.497919040528
 30
0.0
 11
1210.631482263231
 21
1215.497919040523
 31
0.0
  0
LINE
  5
313
330
1D
100
AcDbEntity
  8
_0-1_荳_闊_
  6
繝_繧_繝_繧_繧_繝__24
 62
     7
100
AcDbLine
 10
1210.631482263231
 20
1657.497919040523
 30
0.0
 11
1210.631482263231
 21
1215.497919040523
 31
0.0
  0
LINE
  5
314
330
1D
100
AcDbEntity
  8
_0-1_荳_闊_
  6
Continuous
 62
     7
100
AcDbLine
 10
1258.381482263221
 20
1658.497919040769
 30
0.0
 11
1262.881482263221
 21
1658.497919040769
 31
0.0
  0
LINE
  5
315
330
1D
100
AcDbEntity
  8
_0-1_荳_闊_
  6
Continuous
 62
     7
100
AcDbLine
 10
1262.881482263221
 20
1658.497919040769
 30
0.0
 11
1262.881482263221
 21
1214.497919040769
 31
0.0
  0
LINE
  5
316
330
1D
100
AcDbEntity
  8
_0-1_荳_闊_
  6
Continuous
 62
     7
100
AcDbLine
 10
1262.881482263221
 20
1214.497919040769
 30
0.0
 11
1258.381482263221
 21
1214.497919040769
 31
0.0
  0
LINE
  5
317
330
1D
100
AcDbEntity
  8
_0-1_荳_闊_
  6
Continuous
 62
     7
100
AcDbLine
 10
1258.381482263221
 20
1214.497919040769
 30
0.0
 11
1258.381482263221
 21
1658.497919040769
 31
0.0
  0
LINE
  5
318
330
1D
100
AcDbEntity
  8
_0-1_荳_闊_
  6
Continuous
 62
     7
100
AcDbLine
 10
2004.543925378943
 20
144.8159385248086
 30
0.0
 11
2034.543925378943
 21
144.8159385248086
 31
0.0
  0
LINE
  5
319
330
1D
100
AcDbEntity
  8
_0-1_荳_闊_
  6
Continuous
 62
     7
100
AcDbLine
 10
2034.543925378943
 20
144.8159385248086
 30
0.0
 11
2034.543925378943
 21
140.3159385248086
 31
0.0
  0
LINE
  5
31A
330
1D
100
AcDbEntity
  8
_0-1_荳_闊_
  6
Continuous
 62
     7
100
AcDbLine
 10
2034.543925378943
 20
140.3159385248086
 30
0.0
 11
2004.543925378943
 21
140.3159385248086
 31
0.0
  0
LINE
  5
31B
330
1D
100
AcDbEntity
  8
_0-1_荳_闊_
  6
Continuous
 62
     7
100
AcDbLine
 10
2004.543925378943
 20
140.3159385248086
 30
0.0
 11
2004.543925378943
 21
144.8159385248086
 31
0.0
  0
INSERT
  5
31C
330
1D
100
AcDbEntity
  8
_0-2_蟇_豕__
100
AcDbBlockReference
  2
-023-_D24
 10
1179.7910750807
 20
949.483848826528
 30
0.0
  0
LINE
  5
31D
330
1D
100
AcDbEntity
  8
_0-1_荳_闊_
  6
繝_繧_繝_繧_繧_繝__24
 62
     7
100
AcDbLine
 10
-250.3004982522416
 20
879.8159385251137
 30
0.0
 11
-250.3004982522416
 21
919.815938525183
 31
0.0
  0
LINE
  5
31E
330
1D
100
AcDbEntity
  8
_0-1_荳_闊_
  6
繝_繧_繝_繧_繧_繝__24
 62
     7
100
AcDbLine
 10
-250.3004982522416
 20
919.815938525183
 30
0.0
 11
183.6995017477589
 21
919.815938525183
 31
0.0
  0
LINE
  5
31F
330
1D
100
AcDbEntity
  8
_0-1_荳_闊_
  6
繝_繧_繝_繧_繧_繝__24
 62
     7
100
AcDbLine
 10
183.6995017477589
 20
919.815938525183
 30
0.0
 11
183.6995017477589
 21
879.8159385251137
 31
0.0
  0
LINE
  5
320
330
1D
100
AcDbEntity
  8
_0-1_荳_闊_
  6
繝_繧_繝_繧_繧_繝__24
 62
     7
100
AcDbLine
 10
183.6995017477589
 20
879.8159385251137
 30
0.0
 11
-250.3004982522416
 21
879.8159385251137
 31
0.0
  0
LINE
  5
321
330
1D
100
AcDbEntity
  8
_0-1_荳_闊_
  6
繝_繧_繝_繧_繧_繝__24
 62
     7
100
AcDbLine
 10
139.1995017476295
 20
145.0659385251098
 30
0.0
 11
139.1995017476286
 21
140.0659385251098
 31
0.0
  0
ARC
  5
322
330
1D
100
AcDbEntity
  8
_0-1_荳_闊_
  6
繝_繧_繝_繧_繧_繝__24
 62
     7
100
AcDbCircle
 10
146.6995017476286
 20
140.0659385251085
 30
0.0
 40
7.5
100
AcDbArc
 50
179.9999999999905
 51
359.9999999999905
  0
LINE
  5
323
330
1D
100
AcDbEntity
  8
_0-1_荳_闊_
  6
繝_繧_繝_繧_繧_繝__24
 62
     7
100
AcDbLine
 10
154.1995017476286
 20
140.0659385251073
 30
0.0
 11
154.1995017476295
 21
145.0659385251073
 31
0.0
  0
LINE
  5
324
330
1D
100
AcDbEntity
  8
_0-1_荳_闊_
  6
繝_繧_繝_繧_繧_繝__24
 62
     7
100
AcDbLine
 10
154.1995017476295
 20
145.0659385251073
 30
0.0
 11
139.1995017476295
 21
145.0659385251098
 31
0.0
  0
LINE
  5
325
330
1D
100
AcDbEntity
  8
_0-1_荳_闊_
  6
繝_繧_繝_繧_繧_繝__24
 62
     7
100
AcDbLine
 10
-205.8004982523705
 20
145.0659385251661
 30
0.0
 11
-205.8004982523714
 21
140.0659385251661
 31
0.0
  0
ARC
  5
326
330
1D
100
AcDbEntity
  8
_0-1_荳_闊_
  6
繝_繧_繝_繧_繧_繝__24
 62
     7
100
AcDbCircle
 10
-213.3004982523714
 20
140.0659385251673
 30
0.0
 40
7.5
100
AcDbArc
 50
179.9999999999904
 51
359.9999999999905
  0
LINE
  5
327
330
1D
100
AcDbEntity
  8
_0-1_荳_闊_
  6
繝_繧_繝_繧_繧_繝__24
 62
     7
100
AcDbLine
 10
-220.8004982523714
 20
140.0659385251686
 30
0.0
 11
-220.8004982523705
 21
145.0659385251686
 31
0.0
  0
LINE
  5
328
330
1D
100
AcDbEntity
  8
_0-1_荳_闊_
  6
繝_繧_繝_繧_繧_繝__24
 62
     7
100
AcDbLine
 10
-220.8004982523705
 20
145.0659385251686
 30
0.0
 11
-205.8004982523705
 21
145.0659385251661
 31
0.0
  0
INSERT
  5
329
330
1D
100
AcDbEntity
  8
_0-a__0-2_蟇_豕__ts
100
AcDbBlockReference
  2
-024-_D25
 10
1179.7910750807
 20
949.483848826528
 30
0.0
  0
INSERT
  5
32A
330
1D
100
AcDbEntity
  8
_1-1__0-2_蟇_豕___4-1
100
AcDbBlockReference
  2
-025-_D26
 10
1179.7910750807
 20
949.483848826528
 30
0.0
  0
LINE
  5
32B
330
1D
100
AcDbEntity
  8
_0-1_荳_闊_
  6
繝_繧_繝_繧_繧_繝__24
 62
     7
100
AcDbLine
 10
-333.3004982522546
 20
-7.434061474994564
 30
0.0
 11
-333.3004982522546
 21
292.5659385252007
 31
0.0
  0
LINE
  5
32C
330
1D
100
AcDbEntity
  8
_0-1_荳_闊_
  6
繝_繧_繝_繧_繧_繝__24
 62
     7
100
AcDbLine
 10
-333.3004982522546
 20
292.5659385252007
 30
0.0
 11
266.6995017478429
 21
292.5659385252007
 31
0.0
  0
LINE
  5
32D
330
1D
100
AcDbEntity
  8
_0-1_荳_闊_
  6
繝_繧_繝_繧_繧_繝__24
 62
     7
100
AcDbLine
 10
266.6995017478429
 20
292.5659385252007
 30
0.0
 11
266.6995017478429
 21
-7.434061474994564
 31
0.0
  0
LINE
  5
32E
330
1D
100
AcDbEntity
  8
_0-1_荳_闊_
  6
繝_繧_繝_繧_繧_繝__24
 62
     7
100
AcDbLine
 10
266.6995017478429
 20
-7.434061474994564
 30
0.0
 11
-333.3004982522546
 21
-7.434061474994564
 31
0.0
  0
LINE
  5
32F
330
1D
100
AcDbEntity
  8
_0-1_荳_闊_
  6
Continuous
 62
     7
100
AcDbLine
 10
-245.8004982523626
 20
192.5659385251726
 30
0.0
 11
-283.3004982523626
 21
192.5659385251787
 31
0.0
  0
LINE
  5
330
330
1D
100
AcDbEntity
  8
_0-1_荳_闊_
  6
Continuous
 62
     7
100
AcDbLine
 10
-283.3004982523626
 20
192.5659385251787
 30
0.0
 11
-283.3004982523796
 21
92.5659385251787
 31
0.0
  0
LINE
  5
331
330
1D
100
AcDbEntity
  8
_0-1_荳_闊_
  6
Continuous
 62
     7
100
AcDbLine
 10
-283.3004982523796
 20
92.5659385251787
 30
0.0
 11
216.6995017476211
 21
92.56593852509718
 31
0.0
  0
LINE
  5
332
330
1D
100
AcDbEntity
  8
_0-1_荳_闊_
  6
Continuous
 62
     7
100
AcDbLine
 10
216.6995017476211
 20
92.56593852509718
 30
0.0
 11
216.6995017476374
 21
192.5659385250971
 31
0.0
  0
LINE
  5
333
330
1D
100
AcDbEntity
  8
_0-1_荳_闊_
  6
Continuous
 62
     7
100
AcDbLine
 10
216.6995017476374
 20
192.5659385250971
 30
0.0
 11
179.1995017476374
 21
192.5659385251032
 31
0.0
  0
LINE
  5
334
330
1D
100
AcDbEntity
  8
_0-1_荳_闊_
  6
繝_繧_繝_繧_繧_繝__24
 62
     7
100
AcDbLine
 10
-245.8004982523626
 20
192.5659385251726
 30
0.0
 11
179.1995017476374
 21
192.5659385251032
 31
0.0
  0
LINE
  5
335
330
1D
100
AcDbEntity
  8
_0-1_荳_闊_
  6
Continuous
 62
     7
100
AcDbLine
 10
-255.3004982523646
 20
140.3159385251129
 30
0.0
 11
-255.3004982523646
 21
144.8159385251838
 31
0.0
  0
LINE
  5
336
330
1D
100
AcDbEntity
  8
_0-1_荳_闊_
  6
Continuous
 62
     7
100
AcDbLine
 10
-255.3004982523646
 20
144.8159385251838
 30
0.0
 11
188.6995017476356
 21
144.8159385251838
 31
0.0
  0
LINE
  5
337
330
1D
100
AcDbEntity
  8
_0-1_荳_闊_
  6
Continuous
 62
     7
100
AcDbLine
 10
188.6995017476356
 20
144.8159385251838
 30
0.0
 11
188.6995017476356
 21
140.3159385251129
 31
0.0
  0
LINE
  5
338
330
1D
100
AcDbEntity
  8
_0-1_荳_闊_
  6
Continuous
 62
     7
100
AcDbLine
 10
188.6995017476356
 20
140.3159385251129
 30
0.0
 11
-255.3004982523646
 21
140.3159385251129
 31
0.0
  0
INSERT
  5
339
330
1D
100
AcDbEntity
  8
_0-2_蟇_豕__
100
AcDbBlockReference
  2
-026-_D27
 10
1179.7910750807
 20
949.483848826528
 30
0.0
  0
INSERT
  5
33A
330
1D
100
AcDbEntity
  8
_0-2_蟇_豕__
100
AcDbBlockReference
  2
-027-_D28
 10
1179.7910750807
 20
949.483848826528
 30
0.0
  0
INSERT
  5
33B
330
1D
100
AcDbEntity
  8
_0-a__0-2_蟇_豕__ts
100
AcDbBlockReference
  2
-028-_D29
 10
1179.7910750807
 20
949.483848826528
 30
0.0
  0
INSERT
  5
33C
330
1D
100
AcDbEntity
  8
_0-2_蟇_豕__
100
AcDbBlockReference
  2
-029-_D30
 10
1179.7910750807
 20
949.483848826528
 30
0.0
  0
INSERT
  5
33D
330
1D
100
AcDbEntity
  8
_0-a__0-2_蟇_豕__ts
100
AcDbBlockReference
  2
-030-_D31
 10
1179.7910750807
 20
949.483848826528
 30
0.0
  0
INSERT
  5
33E
330
1D
100
AcDbEntity
  8
_0-a__0-2_蟇_豕__ts
100
AcDbBlockReference
  2
-031-_D32
 10
1179.7910750807
 20
949.483848826528
 30
0.0
  0
INSERT
  5
33F
330
1D
100
AcDbEntity
  8
_0-a__0-2_蟇_豕__ts
100
AcDbBlockReference
  2
-032-_D33
 10
1179.7910750807
 20
949.483848826528
 30
0.0
  0
INSERT
  5
340
330
1D
100
AcDbEntity
  8
_0-a__0-2_蟇_豕__ts
100
AcDbBlockReference
  2
-033-_D34
 10
1179.7910750807
 20
949.483848826528
 30
0.0
  0
INSERT
  5
341
330
1D
100
AcDbEntity
  8
_0-b__0-2_蟇_豕___2-1
100
AcDbBlockReference
  2
-034-_D35
 10
1179.7910750807
 20
949.483848826528
 30
0.0
  0
INSERT
  5
342
330
1D
100
AcDbEntity
  8
_0-b__0-2_蟇_豕___2-1
100
AcDbBlockReference
  2
-035-_D36
 10
1179.7910750807
 20
949.483848826528
 30
0.0
  0
LINE
  5
343
330
1D
100
AcDbEntity
  8
_0-1_荳_闊_
  6
Continuous
 62
     7
100
AcDbLine
 10
-195.6185177367795
 20
1601.997919040523
 30
0.0
 11
-72.20892491929953
 21
1715.27603863594
 31
0.0
  0
LINE
  5
344
330
1D
100
AcDbEntity
  8
_0-1_荳_闊_
  6
Continuous
 62
     7
100
AcDbLine
 10
-72.20892491929953
 20
1715.27603863594
 30
0.0
 11
-72.20892491929953
 21
1927.990101915558
 31
0.0
  0
LINE
  5
345
330
1D
100
AcDbEntity
  8
_0-1_荳_闊_
  6
Continuous
 62
     7
100
AcDbLine
 10
1262.881482263221
 20
1581.470137404761
 30
0.0
 11
1371.064700884641
 21
1689.653356026182
 31
0.0
  0
LINE
  5
346
330
1D
100
AcDbEntity
  8
_0-1_荳_闊_
  6
Continuous
 62
     7
100
AcDbLine
 10
1371.064700884641
 20
1689.653356026182
 30
0.0
 11
1371.064700884641
 21
1926.745553768194
 31
0.0
  0
LINE
  5
347
330
1D
100
AcDbEntity
  8
_0-1_荳_闊_
  6
Continuous
 62
     7
100
AcDbLine
 10
1287.22186270516
 20
-296.644528219274
 30
0.0
 11
1287.22186270516
 21
-416.644528219274
 31
0.0
  0
LINE
  5
348
330
1D
100
AcDbEntity
  8
_0-1_荳_闊_
  6
Continuous
 62
     7
100
AcDbLine
 10
1287.221862705158
 20
-296.644528219274
 30
0.0
 11
1287.221862705158
 21
-416.644528219274
 31
0.0
  0
LINE
  5
349
330
1D
100
AcDbEntity
  8
_0-1_荳_闊_
  6
Continuous
 62
     7
100
AcDbLine
 10
2541.221862705158
 20
-296.644528219274
 30
0.0
 11
2541.221862705158
 21
-416.644528219274
 31
0.0
  0
LINE
  5
34A
330
1D
100
AcDbEntity
  8
_0-1_荳_闊_
  6
Continuous
 62
     7
100
AcDbLine
 10
2541.221862705158
 20
-296.644528219274
 30
0.0
 11
2541.221862705158
 21
-416.644528219274
 31
0.0
  0
LINE
  5
34B
330
1D
100
AcDbEntity
  8
_0-1_荳_闊_
  6
Continuous
 62
     7
100
AcDbLine
 10
2237.221862705158
 20
-296.644528219274
 30
0.0
 11
2237.221862705158
 21
-416.644528219274
 31
0.0
  0
LINE
  5
34C
330
1D
100
AcDbEntity
  8
_0-1_荳_闊_
  6
Continuous
 62
     7
100
AcDbLine
 10
1933.221862705158
 20
-296.644528219274
 30
0.0
 11
1933.221862705158
 21
-416.644528219274
 31
0.0
  0
LINE
  5
34D
330
1D
100
AcDbEntity
  8
_0-1_荳_闊_
  6
Continuous
 62
     7
100
AcDbLine
 10
1933.221862705158
 20
-296.644528219274
 30
0.0
 11
1933.221862705158
 21
-416.644528219274
 31
0.0
  0
LINE
  5
34E
330
1D
100
AcDbEntity
  8
_0-1_荳_闊_
  6
Continuous
 62
     7
100
AcDbLine
 10
2237.221862705158
 20
-296.644528219274
 30
0.0
 11
2237.221862705158
 21
-416.644528219274
 31
0.0
  0
LINE
  5
34F
330
1D
100
AcDbEntity
  8
_0-1_荳_闊_
  6
Continuous
 62
     7
100
AcDbLine
 10
2405.543926108488
 20
133.5659385248
 30
0.0
 11
2405.543926108488
 21
151.5659385248
 31
0.0
  0
LINE
  5
350
330
1D
100
AcDbEntity
  8
_0-1_荳_闊_
  6
Continuous
 62
     7
100
AcDbLine
 10
2405.543926108488
 20
151.5659385248
 30
0.0
 11
2413.543926108488
 21
151.5659385248
 31
0.0
  0
LINE
  5
351
330
1D
100
AcDbEntity
  8
_0-1_荳_闊_
  6
Continuous
 62
     7
100
AcDbLine
 10
2413.543926108488
 20
151.5659385248
 30
0.0
 11
2413.543926108488
 21
133.5659385248
 31
0.0
  0
LINE
  5
352
330
1D
100
AcDbEntity
  8
_0-1_荳_闊_
  6
Continuous
 62
     7
100
AcDbLine
 10
2413.543926108488
 20
133.5659385248
 30
0.0
 11
2405.543926108488
 21
133.5659385248
 31
0.0
  0
LINE
  5
353
330
1D
100
AcDbEntity
  8
_0-1_荳_闊_
  6
Continuous
 62
     7
100
AcDbLine
 10
2419.543926108488
 20
136.7401411878868
 30
0.0
 11
2419.543926108488
 21
148.7200029443463
 31
0.0
  0
LINE
  5
354
330
1D
100
AcDbEntity
  8
_0-1_荳_闊_
  6
Continuous
 62
     7
100
AcDbLine
 10
2419.543926108488
 20
148.7200029443463
 30
0.0
 11
2454.543926108488
 21
148.7200029443463
 31
0.0
  0
LINE
  5
355
330
1D
100
AcDbEntity
  8
_0-1_荳_闊_
  6
Continuous
 62
     7
100
AcDbLine
 10
2454.543926108488
 20
148.7200029443463
 30
0.0
 11
2454.543926108488
 21
136.7401411878868
 31
0.0
  0
LINE
  5
356
330
1D
100
AcDbEntity
  8
_0-1_荳_闊_
  6
Continuous
 62
     7
100
AcDbLine
 10
2454.543926108488
 20
136.7401411878868
 30
0.0
 11
2419.543926108488
 21
136.7401411878868
 31
0.0
  0
LINE
  5
357
330
1D
100
AcDbEntity
  8
_0-1_荳_闊_
  6
繝_繧_繝_繧_繧_繝__17
 62
     7
100
AcDbLine
 10
2405.543926108488
 20
142.5659385248
 30
0.0
 11
2454.543926108488
 21
142.7353775865643
 31
0.0
  0
LINE
  5
358
330
1D
100
AcDbEntity
  8
_0-1_荳_闊_
  6
Continuous
 62
     7
100
AcDbLine
 10
2419.543925378943
 20
1230.507988162293
 30
0.0
 11
2419.543925378943
 21
1242.487849918753
 31
0.0
  0
LINE
  5
359
330
1D
100
AcDbEntity
  8
_0-1_荳_闊_
  6
Continuous
 62
     7
100
AcDbLine
 10
2419.543925378943
 20
1242.487849918753
 30
0.0
 11
2454.543925378943
 21
1242.487849918753
 31
0.0
  0
LINE
  5
35A
330
1D
100
AcDbEntity
  8
_0-1_荳_闊_
  6
Continuous
 62
     7
100
AcDbLine
 10
2454.543925378943
 20
1242.487849918753
 30
0.0
 11
2454.543925378943
 21
1230.507988162293
 31
0.0
  0
LINE
  5
35B
330
1D
100
AcDbEntity
  8
_0-1_荳_闊_
  6
Continuous
 62
     7
100
AcDbLine
 10
2454.543925378943
 20
1230.507988162293
 30
0.0
 11
2419.543925378943
 21
1230.507988162293
 31
0.0
  0
LINE
  5
35C
330
1D
100
AcDbEntity
  8
_0-1_荳_闊_
  6
繝_繧_繝_繧_繧_繝__17
 62
     7
100
AcDbLine
 10
2405.543925378943
 20
1236.35169097644
 30
0.0
 11
2454.543925378943
 21
1236.497919040523
 31
0.0
  0
LINE
  5
35D
330
1D
100
AcDbEntity
  8
_0-1_荳_闊_
  6
Continuous
 62
     7
100
AcDbLine
 10
2405.543925378943
 20
1627.497919040523
 30
0.0
 11
2405.543925378943
 21
1645.497919040523
 31
0.0
  0
LINE
  5
35E
330
1D
100
AcDbEntity
  8
_0-1_荳_闊_
  6
Continuous
 62
     7
100
AcDbLine
 10
2405.543925378943
 20
1645.497919040523
 30
0.0
 11
2413.543925378943
 21
1645.497919040523
 31
0.0
  0
LINE
  5
35F
330
1D
100
AcDbEntity
  8
_0-1_荳_闊_
  6
Continuous
 62
     7
100
AcDbLine
 10
2413.543925378943
 20
1645.497919040523
 30
0.0
 11
2413.543925378943
 21
1627.497919040523
 31
0.0
  0
LINE
  5
360
330
1D
100
AcDbEntity
  8
_0-1_荳_闊_
  6
Continuous
 62
     7
100
AcDbLine
 10
2413.543925378943
 20
1627.497919040523
 30
0.0
 11
2405.543925378943
 21
1627.497919040523
 31
0.0
  0
LINE
  5
361
330
1D
100
AcDbEntity
  8
_0-1_荳_闊_
  6
Continuous
 62
     7
100
AcDbLine
 10
2419.543925378943
 20
1630.67212170361
 30
0.0
 11
2419.543925378943
 21
1642.651983460069
 31
0.0
  0
LINE
  5
362
330
1D
100
AcDbEntity
  8
_0-1_荳_闊_
  6
Continuous
 62
     7
100
AcDbLine
 10
2419.543925378943
 20
1642.651983460069
 30
0.0
 11
2454.543925378943
 21
1642.651983460069
 31
0.0
  0
LINE
  5
363
330
1D
100
AcDbEntity
  8
_0-1_荳_闊_
  6
Continuous
 62
     7
100
AcDbLine
 10
2454.543925378943
 20
1642.651983460069
 30
0.0
 11
2454.543925378943
 21
1630.67212170361
 31
0.0
  0
LINE
  5
364
330
1D
100
AcDbEntity
  8
_0-1_荳_闊_
  6
Continuous
 62
     7
100
AcDbLine
 10
2454.543925378943
 20
1630.67212170361
 30
0.0
 11
2419.543925378943
 21
1630.67212170361
 31
0.0
  0
LINE
  5
365
330
1D
100
AcDbEntity
  8
_0-1_荳_闊_
  6
繝_繧_繝_繧_繧_繝__17
 62
     7
100
AcDbLine
 10
2405.543925378943
 20
1636.497919040523
 30
0.0
 11
2454.543925378943
 21
1636.667358102287
 31
0.0
  0
LINE
  5
366
330
1D
100
AcDbEntity
  8
_0-1_荳_闊_
  6
Continuous
 62
     7
100
AcDbLine
 10
506.2466789619557
 20
1249.5664709937
 30
0.0
 11
594.6562717794355
 21
1144.2391268784
 31
0.0
  0
LINE
  5
367
330
1D
100
AcDbEntity
  8
_0-1_荳_闊_
  6
Continuous
 62
     7
100
AcDbLine
 10
594.6562717794355
 20
1144.2391268784
 30
0.0
 11
594.6562717794355
 21
1070.2391268784
 31
0.0
  0
LINE
  5
368
330
1D
100
AcDbEntity
  8
_0-1_荳_闊_
  6
Continuous
 62
     7
100
AcDbLine
 10
361.9074097250177
 20
450.1825495852319
 30
0.0
 11
361.9074097250177
 21
500.3296634954781
 31
0.0
  0
LINE
  5
369
330
1D
100
AcDbEntity
  8
_0-1_荳_闊_
  6
Continuous
 62
     7
100
AcDbLine
 10
361.9074097250177
 20
450.1825495852319
 30
0.0
 11
172.4932651252095
 21
319.7362028732034
 31
0.0
  0
LINE
  5
36A
330
1D
100
AcDbEntity
  8
_0-1_荳_闊_
  6
Continuous
 62
     7
100
AcDbLine
 10
2034.543925378943
 20
1226.183904169219
 30
0.0
 11
2034.543925378943
 21
1433.683904169219
 31
0.0
  0
LINE
  5
36B
330
1D
100
AcDbEntity
  8
_0-1_荳_闊_
  6
Continuous
 62
     7
100
AcDbLine
 10
2034.543925378943
 20
1641.183904169219
 30
0.0
 11
2034.543925378943
 21
1433.683904169219
 31
0.0
  0
LINE
  5
36C
330
1D
100
AcDbEntity
  8
_0-1_荳_闊_
  6
Continuous
 62
     7
100
AcDbLine
 10
2034.543925378943
 20
1641.183904169219
 30
0.0
 11
2034.543925378943
 21
1433.683904169219
 31
0.0
  0
LINE
  5
36D
330
1D
100
AcDbEntity
  8
_0-1_荳_闊_
  6
Continuous
 62
     7
100
AcDbLine
 10
2034.543925378943
 20
1213.183904169219
 30
0.0
 11
2034.543925378943
 21
1636.914238611422
 31
0.0
  0
LINE
  5
36E
330
1D
100
AcDbEntity
  8
_0-1_荳_闊_
  6
Continuous
 62
     7
100
AcDbLine
 10
2393.543925378943
 20
1183.683904169219
 30
0.0
 11
2060.543925378944
 21
1183.683904169219
 31
0.0
  0
LINE
  5
36F
330
1D
100
AcDbEntity
  8
_0-1_荳_闊_
  6
Continuous
 62
     7
100
AcDbLine
 10
2419.543925378943
 20
1657.683904169219
 30
0.0
 11
2419.543925378943
 21
1209.683904169219
 31
0.0
  0
LINE
  5
370
330
1D
100
AcDbEntity
  8
_0-1_荳_闊_
  6
Continuous
 62
     7
100
AcDbLine
 10
2060.543925378944
 20
1683.683904169219
 30
0.0
 11
2393.543925378943
 21
1683.683904169219
 31
0.0
  0
LINE
  5
371
330
1D
100
AcDbEntity
  8
_0-1_荳_闊_
  6
Continuous
 62
     7
100
AcDbLine
 10
2034.543925378944
 20
1209.683904169219
 30
0.0
 11
2034.543925378944
 21
1657.683904169219
 31
0.0
  0
LINE
  5
372
330
1D
100
AcDbEntity
  8
_0-1_荳_闊_
  6
Continuous
 62
     7
100
AcDbLine
 10
2393.543925378943
 20
1189.683904169219
 30
0.0
 11
2060.543925378943
 21
1189.683904169219
 31
0.0
  0
LINE
  5
373
330
1D
100
AcDbEntity
  8
_0-1_荳_闊_
  6
Continuous
 62
     7
100
AcDbLine
 10
2413.543925378943
 20
1657.683904169219
 30
0.0
 11
2413.543925378943
 21
1209.683904169219
 31
0.0
  0
LINE
  5
374
330
1D
100
AcDbEntity
  8
_0-1_荳_闊_
  6
Continuous
 62
     7
100
AcDbLine
 10
2060.543925378943
 20
1677.683904169219
 30
0.0
 11
2393.543925378943
 21
1677.683904169219
 31
0.0
  0
LINE
  5
375
330
1D
100
AcDbEntity
  8
_0-1_荳_闊_
  6
Continuous
 62
     7
100
AcDbLine
 10
2040.543925378943
 20
1209.683904169219
 30
0.0
 11
2040.543925378943
 21
1657.683904169219
 31
0.0
  0
ARC
  5
376
330
1D
100
AcDbEntity
  8
_0-1_荳_闊_
  6
Continuous
 62
     7
100
AcDbCircle
 10
2060.543925378943
 20
1209.683904169219
 30
0.0
 40
20.0
100
AcDbArc
 50
180.0
 51
270.0
  0
ARC
  5
377
330
1D
100
AcDbEntity
  8
_0-1_荳_闊_
  6
Continuous
 62
     7
100
AcDbCircle
 10
2060.543925378944
 20
1209.683904169219
 30
0.0
 40
26.0
100
AcDbArc
 50
180.0
 51
270.0
  0
ARC
  5
378
330
1D
100
AcDbEntity
  8
_0-1_荳_闊_
  6
Continuous
 62
     7
100
AcDbCircle
 10
2060.543925378944
 20
1657.683904169219
 30
0.0
 40
26.0
100
AcDbArc
 50
90.0
 51
180.0
  0
ARC
  5
379
330
1D
100
AcDbEntity
  8
_0-1_荳_闊_
  6
Continuous
 62
     7
100
AcDbCircle
 10
2393.543925378943
 20
1657.683904169219
 30
0.0
 40
26.0
100
AcDbArc
 50
0.0
 51
90.0
  0
ARC
  5
37A
330
1D
100
AcDbEntity
  8
_0-1_荳_闊_
  6
Continuous
 62
     7
100
AcDbCircle
 10
2393.543925378943
 20
1209.683904169219
 30
0.0
 40
25.99999999999997
100
AcDbArc
 50
270.0
 51
0.0
  0
ARC
  5
37B
330
1D
100
AcDbEntity
  8
_0-1_荳_闊_
  6
Continuous
 62
     7
100
AcDbCircle
 10
2393.543925378943
 20
1209.683904169219
 30
0.0
 40
19.99999999999997
100
AcDbArc
 50
270.0
 51
0.0
  0
ARC
  5
37C
330
1D
100
AcDbEntity
  8
_0-1_荳_闊_
  6
Continuous
 62
     7
100
AcDbCircle
 10
2393.543925378943
 20
1657.683904169219
 30
0.0
 40
20.0
100
AcDbArc
 50
0.0
 51
90.0
  0
ARC
  5
37D
330
1D
100
AcDbEntity
  8
_0-1_荳_闊_
  6
Continuous
 62
     7
100
AcDbCircle
 10
2060.543925378943
 20
1657.683904169219
 30
0.0
 40
20.0
100
AcDbArc
 50
90.0
 51
180.0
  0
LINE
  5
37E
330
1D
100
AcDbEntity
  8
_0-1_荳_闊_
  6
Continuous
 62
     7
100
AcDbLine
 10
1734.2910750807
 20
1551.483848826528
 30
0.0
 11
1734.2910750807
 21
1546.483848826528
 31
0.0
  0
LINE
  5
37F
330
1D
100
AcDbEntity
  8
_0-1_荳_闊_
  6
Continuous
 62
     7
100
AcDbLine
 10
2004.543925378944
 20
1658.497919040523
 30
0.0
 11
2034.543925378944
 21
1658.497919040523
 31
0.0
  0
LINE
  5
380
330
1D
100
AcDbEntity
  8
_0-1_荳_闊_
  6
Continuous
 62
     7
100
AcDbLine
 10
2034.543925378944
 20
1658.497919040523
 30
0.0
 11
2034.543925378944
 21
1214.497919040523
 31
0.0
  0
LINE
  5
381
330
1D
100
AcDbEntity
  8
_0-1_荳_闊_
  6
Continuous
 62
     7
100
AcDbLine
 10
2034.543925378944
 20
1214.497919040523
 30
0.0
 11
2004.543925378944
 21
1214.497919040523
 31
0.0
  0
LINE
  5
382
330
1D
100
AcDbEntity
  8
_0-1_荳_闊_
  6
Continuous
 62
     7
100
AcDbLine
 10
2004.543925378944
 20
1214.497919040523
 30
0.0
 11
2004.543925378944
 21
1658.497919040523
 31
0.0
  0
LINE
  5
383
330
1D
100
AcDbEntity
  8
_0-1_荳_闊_
  6
Continuous
 62
     7
100
AcDbLine
 10
2004.543925378943
 20
1214.497919040523
 30
0.0
 11
2034.543925378943
 21
1214.497919040523
 31
0.0
  0
LINE
  5
384
330
1D
100
AcDbEntity
  8
_0-1_荳_闊_
  6
Continuous
 62
     7
100
AcDbLine
 10
2034.543925378943
 20
1214.497919040523
 30
0.0
 11
2034.543925378943
 21
149.7979190405227
 31
0.0
  0
LINE
  5
385
330
1D
100
AcDbEntity
  8
_0-1_荳_闊_
  6
Continuous
 62
     7
100
AcDbLine
 10
2034.543925378943
 20
149.7979190405227
 30
0.0
 11
2004.543925378943
 21
149.7979190405227
 31
0.0
  0
LINE
  5
386
330
1D
100
AcDbEntity
  8
_0-1_荳_闊_
  6
Continuous
 62
     7
100
AcDbLine
 10
2004.543925378943
 20
149.7979190405227
 30
0.0
 11
2004.543925378943
 21
1214.497919040523
 31
0.0
  0
INSERT
  5
387
330
1D
100
AcDbEntity
  8
_0-a__0-2_蟇_豕__ts
100
AcDbBlockReference
  2
-036-_D38
 10
1179.7910750807
 20
949.483848826528
 30
0.0
  0
INSERT
  5
388
330
1D
100
AcDbEntity
  8
_0-1_荳_闊_
100
AcDbBlockReference
  2
-037-繧_繝_繝_繝__6-1
 10
1181.555167287535
 20
952.408805114059
 30
0.0
  0
INSERT
  5
389
330
1D
100
AcDbEntity
  8
_0-1_荳_闊_
100
AcDbBlockReference
  2
-038-繧_繝_繝_繝__7-1
 10
1181.555167287535
 20
952.408805114059
 30
0.0
  0
LINE
  5
38A
330
1D
100
AcDbEntity
  8
_0-1_荳_闊_
  6
Continuous
 62
     7
100
AcDbLine
 10
1210.631482263231
 20
1607.483848826528
 30
0.0
 11
1210.631482263231
 21
1601.497919040529
 31
0.0
  0
LINE
  5
38B
330
1D
100
AcDbEntity
  8
_0-1_荳_闊_
  6
Continuous
 62
     7
100
AcDbLine
 10
1210.631482263231
 20
1551.497919040529
 30
0.0
 11
1210.631482263231
 21
1545.511989254529
 31
0.0
  0
LINE
  5
38C
330
1D
100
AcDbEntity
  8
_0-1_荳_闊_
  6
Continuous
 62
     7
100
AcDbLine
 10
1210.631482263231
 20
1495.497919040529
 30
0.0
 11
1210.631482263231
 21
1489.511989254529
 31
0.0
  0
LINE
  5
38D
330
1D
100
AcDbEntity
  8
_0-1_荳_闊_
  6
Continuous
 62
     7
100
AcDbLine
 10
1210.631482263231
 20
1383.497919040529
 30
0.0
 11
1210.631482263231
 21
1377.511989254529
 31
0.0
  0
LINE
  5
38E
330
1D
100
AcDbEntity
  8
_0-1_荳_闊_
  6
Continuous
 62
     7
100
AcDbLine
 10
1210.631482263231
 20
1327.497919040529
 30
0.0
 11
1210.631482263231
 21
1321.511989254529
 31
0.0
  0
LINE
  5
38F
330
1D
100
AcDbEntity
  8
_0-1_荳_闊_
  6
Continuous
 62
     7
100
AcDbLine
 10
1210.631482263231
 20
1271.497919040529
 30
0.0
 11
1210.631482263231
 21
1265.511989254529
 31
0.0
  0
LINE
  5
390
330
1D
100
AcDbEntity
  8
_0-1_荳_闊_
  6
Continuous
 62
     7
100
AcDbLine
 10
-204.2864280381245
 20
192.5659385251734
 30
0.0
 11
-198.3004982521256
 21
192.5659385251734
 31
0.0
  0
LINE
  5
391
330
1D
100
AcDbEntity
  8
_0-1_荳_闊_
  6
Continuous
 62
     7
100
AcDbLine
 10
-148.3004982521256
 20
192.5659385251734
 30
0.0
 11
-142.3145684661256
 21
192.5659385251734
 31
0.0
  0
LINE
  5
392
330
1D
100
AcDbEntity
  8
_0-1_荳_闊_
  6
Continuous
 62
     7
100
AcDbLine
 10
75.69950174787436
 20
192.5659385251734
 30
0.0
 11
81.68543153387441
 21
192.5659385251734
 31
0.0
  0
LINE
  5
393
330
1D
100
AcDbEntity
  8
_0-1_荳_闊_
  6
Continuous
 62
     7
100
AcDbLine
 10
131.6995017478744
 20
192.5659385251734
 30
0.0
 11
137.6854315338744
 21
192.5659385251734
 31
0.0
  0
INSERT
  5
394
330
1D
100
AcDbEntity
  8
_0-1_荳_闊_
100
AcDbBlockReference
  2
-039-繧_繝_繝_繝__8-1
 10
1181.555167287535
 20
952.408805114059
 30
0.0
  0
INSERT
  5
395
330
1D
100
AcDbEntity
  8
_0-a__0-2_蟇_豕__ts
100
AcDbBlockReference
  2
-040-_D42
 10
1179.7910750807
 20
949.483848826528
 30
0.0
  0
TEXT
  5
396
330
1D
100
AcDbEntity
  8
_0-1_荳_闊_
 62
     7
100
AcDbText
 10
1351.221862705158
 20
-373.419111552608
 30
0.0
 40
32.49414062499999
  1
キアルベンチ KIB-05 土新建材
 41
0.9
100
AcDbText
  0
TEXT
  5
397
330
1D
100
AcDbEntity
  8
_0-1_荳_闊_
 62
     7
100
AcDbText
 10
371.2717372541294
 20
521.5885101545762
 30
0.0
 40
24.37060546875
  1
座面:木粉一体形成アルミ材キアル 50×30
 50
90.0
100
AcDbText
  0
TEXT
  5
398
330
1D
100
AcDbEntity
  8
_0-1_荳_闊_
 62
     7
100
AcDbText
 10
-78.16142491929963
 20
1943.269528219274
 30
0.0
 40
24.37060546875
  1
リブ:スチールt4.5
 50
90.0
100
AcDbText
  0
TEXT
  5
399
330
1D
100
AcDbEntity
  8
_0-1_荳_闊_
 62
     7
100
AcDbText
 10
-42.67667432971348
 20
1943.692670393842
 30
0.0
 40
24.37060546875
  1
ステンシェルFT塗装
 50
90.0
100
AcDbText
  0
TEXT
  5
39A
330
1D
100
AcDbEntity
  8
_0-1_荳_闊_
 62
     7
100
AcDbText
 10
591.8279280162004
 20
841.802367071659
 30
0.0
 40
24.37060546875
  1
補強材:スチールt4.5
 50
90.0
100
AcDbText
  0
TEXT
  5
39B
330
1D
100
AcDbEntity
  8
_0-1_荳_闊_
 62
     7
100
AcDbText
 10
623.9707851590575
 20
863.2309385002304
 30
0.0
 40
24.37060546875
  1
ステンシェルFT塗装
 50
90.0
100
AcDbText
  0
TEXT
  5
39C
330
1D
100
AcDbEntity
  8
_0-1_荳_闊_
 62
     7
100
AcDbText
 10
1366.827928016201
 20
1956.088081357373
 30
0.0
 40
24.37060546875
  1
リブ:スチールt4.5
 50
90.0
100
AcDbText
  0
TEXT
  5
39D
330
1D
100
AcDbEntity
  8
_0-1_荳_闊_
 62
     7
100
AcDbText
 10
1407.738158917774
 20
1943.692670393842
 30
0.0
 40
24.37060546875
  1
ステンシェルFT塗装
 50
90.0
100
AcDbText
  0
TEXT
  5
39E
330
1D
100
AcDbEntity
  8
_0-1_荳_闊_
 62
     7
100
AcDbText
 10
2206.113413188241
 20
404.3905717257655
 30
0.0
 40
24.37060546875
  1
支柱:スチールt6
 50
90.0
100
AcDbText
  0
TEXT
  5
39F
330
1D
100
AcDbEntity
  8
_0-1_荳_闊_
 62
     7
100
AcDbText
 10
2242.615304839741
 20
400.2945078594447
 30
0.0
 40
24.37060546875
  1
ステンシェルFT塗装
 50
90.0
100
AcDbText
  0
TEXT
  5
3A0
330
1D
100
AcDbEntity
  8
_0-1_荳_闊_
 62
     7
100
AcDbText
 10
2406.113642301915
 20
202.5166527859445
 30
0.0
 40
24.37060546875
  1
M8グリップアンカー×4
 50
90.0
100
AcDbText
  0
LINE
  5
3A1
330
1D
100
AcDbEntity
  8
_0-0_
  6
Continuous
 62
     7
100
AcDbLine
 10
1287.567974723231
 20
1696.497919040529
 30
0.0
 11
1287.567974723231
 21
1817.541141376532
 31
0.0
  0
LINE
  5
3A2
330
1D
100
AcDbEntity
  8
_0-0_
  6
Continuous
 62
     7
100
AcDbLine
 10
1287.567974723231
 20
1826.320290896422
 30
0.0
 11
1287.567974723231
 21
1889.01733117062
 31
0.0
  0
LINE
  5
3A3
330
1D
100
AcDbEntity
  8
_0-a__0-2_蟇_豕__ts
  6
Continuous
 62
     7
100
AcDbLine
 10
1258.381482263221
 20
1795.597528397406
 30
0.0
 11
1253.381482263221
 21
1795.597528397406
 31
0.0
  0
LINE
  5
3A4
330
1D
100
AcDbEntity
  8
_0-a__0-2_蟇_豕__ts
  6
Continuous
 62
     7
100
AcDbLine
 10
1264.381116052283
 20
1795.597528397406
 30
0.0
 11
1270.380749841346
 21
1795.597528397406
 31
0.0
  0
LINE
  5
3A5
330
1D
100
AcDbEntity
  8
_0-a__0-2_蟇_豕__ts
  6
Continuous
 62
     7
100
AcDbLine
 10
1247.381848474158
 20
1795.597528397406
 30
0.0
 11
1241.382214685096
 21
1795.597528397406
 31
0.0
  0
INSERT
  5
3A6
330
1D
100
AcDbEntity
  8
_0-a__0-2_蟇_豕__ts
100
AcDbBlockReference
  2
-001-VW_EMPTYBALL
 10
1258.381482263221
 20
1795.597528397406
 30
0.0
 41
5.9996337890625
 42
5.9996337890625
 50
180.0
  0
INSERT
  5
3A7
330
1D
100
AcDbEntity
  8
_0-a__0-2_蟇_豕__ts
100
AcDbBlockReference
  2
-001-VW_EMPTYBALL
 10
1253.381482263221
 20
1795.597528397406
 30
0.0
 41
5.9996337890625
 42
5.9996337890625
  0
POINT
  5
3A8
330
1D
100
AcDbEntity
  8
_0-a__0-2_蟇_豕__ts
 62
     7
100
AcDbPoint
 10
1258.381482263221
 20
1653.997919040524
 30
0.0
  0
POINT
  5
3A9
330
1D
100
AcDbEntity
  8
_0-a__0-2_蟇_豕__ts
 62
     7
100
AcDbPoint
 10
1253.381482263221
 20
1658.997919040523
 30
0.0
  0
LINE
  5
3AA
330
1D
100
AcDbEntity
  8
_0-a__0-2_蟇_豕__ts
  6
Continuous
 62
     7
100
AcDbLine
 10
1253.381482263221
 20
1668.997919040523
 30
0.0
 11
1253.381482263221
 21
1767.01821005799
 31
0.0
  0
LINE
  5
3AB
330
1D
100
AcDbEntity
  8
_0-a__0-2_蟇_豕__ts
  6
Continuous
 62
     7
100
AcDbLine
 10
1310.631482263231
 20
1696.497919040529
 30
0.0
 11
1310.631482263231
 21
1805.597528397406
 31
0.0
  0
LINE
  5
3AC
330
1D
100
AcDbEntity
  8
_0-a__0-2_蟇_豕__ts
  6
Continuous
 62
     7
100
AcDbLine
 10
1304.631848474168
 20
1795.597528397406
 30
0.0
 11
1268.881116052283
 21
1795.597528397406
 31
0.0
  0
INSERT
  5
3AD
330
1D
100
AcDbEntity
  8
_0-a__0-2_蟇_豕__ts
100
AcDbBlockReference
  2
-001-VW_EMPTYBALL
 10
1310.631482263231
 20
1795.597528397406
 30
0.0
 41
5.9996337890625
 42
5.9996337890625
  0
INSERT
  5
3AE
330
1D
100
AcDbEntity
  8
_0-a__0-2_蟇_豕__ts
100
AcDbBlockReference
  2
-001-VW_EMPTYBALL
 10
1262.881482263221
 20
1795.597528397406
 30
0.0
 41
5.9996337890625
 42
5.9996337890625
 50
180.0
  0
POINT
  5
3AF
330
1D
100
AcDbEntity
  8
_0-a__0-2_蟇_豕__ts
 62
     7
100
AcDbPoint
 10
1310.631482263231
 20
1686.497919040529
 30
0.0
  0
POINT
  5
3B0
330
1D
100
AcDbEntity
  8
_0-a__0-2_蟇_豕__ts
 62
     7
100
AcDbPoint
 10
1262.881482263221
 20
1649.997919040524
 30
0.0
  0
POINT
  5
3B1
330
1D
100
AcDbEntity
  8
_0-a__0-2_蟇_豕__ts
 62
     7
100
AcDbPoint
 10
1262.881482263221
 20
1795.597528397406
 30
0.0
  0
LINE
  5
3B2
330
1D
100
AcDbEntity
  8
_0-b__0-2_蟇_豕___2-1
  6
Continuous
 62
     7
100
AcDbLine
 10
1262.881482263221
 20
1663.997919040524
 30
0.0
 11
1262.881482263221
 21
1805.597528397406
 31
0.0
  0
LINE
  5
3B3
330
1D
100
AcDbEntity
  8
_0-b__0-2_蟇_豕___2-1
  6
Continuous
 62
     7
100
AcDbLine
 10
1258.381482263221
 20
1663.997919040524
 30
0.0
 11
1258.381482263221
 21
1805.597528397406
 31
0.0
  0
LINE
  5
3B4
330
1D
100
AcDbEntity
  8
_0-b__0-2_蟇_豕___2-1
  6
Continuous
 62
     7
100
AcDbLine
 10
1268.881116052283
 20
1795.597528397406
 30
0.0
 11
1274.880749841346
 21
1795.597528397406
 31
0.0
  0
LINE
  5
3B5
330
1D
100
AcDbEntity
  8
_0-b__0-2_蟇_豕___2-1
  6
Continuous
 62
     7
100
AcDbLine
 10
1252.381848474158
 20
1795.597528397406
 30
0.0
 11
1246.382214685096
 21
1795.597528397406
 31
0.0
  0
INSERT
  5
3B6
330
1D
100
AcDbEntity
  8
_0-b__0-2_蟇_豕___2-1
100
AcDbBlockReference
  2
-001-VW_EMPTYBALL
 10
1262.881482263221
 20
1795.597528397406
 30
0.0
 41
5.9996337890625
 42
5.9996337890625
 50
180.0
  0
INSERT
  5
3B7
330
1D
100
AcDbEntity
  8
_0-b__0-2_蟇_豕___2-1
100
AcDbBlockReference
  2
-001-VW_EMPTYBALL
 10
1258.381482263221
 20
1795.597528397406
 30
0.0
 41
5.9996337890625
 42
5.9996337890625
  0
POINT
  5
3B8
330
1D
100
AcDbEntity
  8
_0-b__0-2_蟇_豕___2-1
 62
     7
100
AcDbPoint
 10
1262.881482263221
 20
1653.997919040524
 30
0.0
  0
POINT
  5
3B9
330
1D
100
AcDbEntity
  8
_0-b__0-2_蟇_豕___2-1
 62
     7
100
AcDbPoint
 10
1258.381482263221
 20
1653.997919040524
 30
0.0
  0
LINE
  5
3BA
330
1D
100
AcDbEntity
  8
_0-a__0-2_蟇_豕__ts
  6
Continuous
 62
     7
100
AcDbLine
 10
1258.381482263221
 20
1663.997919040524
 30
0.0
 11
1258.381482263221
 21
1791.47441229197
 31
0.0
  0
LINE
  5
3BB
330
1D
100
AcDbEntity
  8
_0-a__0-2_蟇_豕__ts
  6
Continuous
 62
     7
100
AcDbLine
 10
1258.381482263221
 20
1791.47441229197
 30
0.0
 11
1258.381482263221
 21
1805.597528397406
 31
0.0
  0
ENDSEC
  0
SECTION
  2
OBJECTS
  0
DICTIONARY
  5
C
330
0
100
AcDbDictionary
281
     1
  3
ACAD_DETAILVIEWSTYLE
350
404
  3
ACAD_GROUP
350
D
  3
ACAD_LAYOUT
350
1A
  3
ACAD_MATERIAL
350
3F5
  3
ACAD_MLEADERSTYLE
350
3FB
  3
ACAD_MLINESTYLE
350
17
  3
ACAD_PLOTSETTINGS
350
19
  3
ACAD_PLOTSTYLENAME
350
E
  3
ACAD_SCALELIST
350
3C6
  3
ACAD_SECTIONVIEWSTYLE
350
405
  3
ACAD_TABLESTYLE
350
3F9
  3
ACAD_VISUALSTYLE
350
3DC
  3
ACDB_RECOMPOSE_DATA
350
444
  3
AcDbVariableDictionary
350
3FF
  0
DICTIONARY
  5
406
330
8
100
AcDbDictionary
280
     1
281
     1
  3
ACAD_XREC_ROUNDTRIP
360
407
  0
DICTIONARY
  5
404
102
{ACAD_REACTORS
330
C
102
}
330
C
100
AcDbDictionary
281
     1
  0
DICTIONARY
  5
D
102
{ACAD_REACTORS
330
C
102
}
330
C
100
AcDbDictionary
281
     1
  0
DICTIONARY
  5
1A
102
{ACAD_REACTORS
330
C
102
}
330
C
100
AcDbDictionary
281
     1
  3
Model
350
1E
  3
レイアウト 1
350
1C
  0
DICTIONARY
  5
3F5
102
{ACAD_REACTORS
330
C
102
}
330
C
100
AcDbDictionary
281
     1
  3
ByBlock
350
3F7
  3
ByLayer
350
3F6
  3
Global
350
3F8
  0
DICTIONARY
  5
3FB
102
{ACAD_REACTORS
330
C
102
}
330
C
100
AcDbDictionary
281
     1
  3
Standard
350
3FC
  0
DICTIONARY
  5
17
102
{ACAD_REACTORS
330
C
102
}
330
C
100
AcDbDictionary
281
     1
  3
Standard
350
18
  0
DICTIONARY
  5
19
102
{ACAD_REACTORS
330
C
102
}
330
C
100
AcDbDictionary
281
     1
  0
ACDBDICTIONARYWDFLT
  5
E
102
{ACAD_REACTORS
330
C
102
}
330
C
100
AcDbDictionary
281
     1
  3
ByColor
350
11
  3
Normal
350
F
100
AcDbDictionaryWithDefault
340
F
  0
DICTIONARY
  5
3C6
102
{ACAD_REACTORS
330
C
102
}
330
C
100
AcDbDictionary
281
     1
  3
A0
350
3C7
  3
B7
350
3C8
  3
B8
350
3C9
  3
B9
350
3CA
  3
C0
350
3CB
  3
C1
350
3CC
  3
C2
350
3CD
  3
C3
350
3CE
  3
C4
350
3CF
  3
C5
350
3D0
  3
C6
350
3D1
  3
C7
350
3D2
  3
C8
350
3D3
  3
C9
350
3D4
  3
D0
350
3D5
  3
D1
350
3D6
  3
D2
350
3D7
  0
DICTIONARY
  5
405
102
{ACAD_REACTORS
330
C
102
}
330
C
100
AcDbDictionary
281
     1
  0
DICTIONARY
  5
3F9
102
{ACAD_REACTORS
330
C
102
}
330
C
100
AcDbDictionary
281
     1
  3
Standard
350
3FA
  0
DICTIONARY
  5
3DC
102
{ACAD_REACTORS
330
C
102
}
330
C
100
AcDbDictionary
281
     1
  3
2dWireframe
350
3E1
  3
Basic
350
3E4
  3
Brighten
350
3E8
  3
ColorChange
350
3EC
  3
Conceptual
350
3E6
  3
Dim
350
3E7
  3
EdgeColorOff
350
3EF
  3
Facepattern
350
3EB
  3
Flat
350
3DD
  3
FlatWithEdges
350
3DE
  3
Gouraud
350
3DF
  3
GouraudWithEdges
350
3E0
  3
Hidden
350
3E3
  3
JitterOff
350
3ED
  3
Linepattern
350
3EA
  3
OverhangOff
350
3EE
  3
Realistic
350
3E5
  3
Shaded
350
3F4
  3
Shaded with edges
350
3F3
  3
Shades of Gray
350
3F0
  3
Sketchy
350
3F1
  3
Thicken
350
3E9
  3
Wireframe
350
3E2
  3
X-Ray
350
3F2
  0
XRECORD
  5
444
102
{ACAD_REACTORS
330
C
102
}
330
C
100
AcDbXrecord
280
     1
 90
        1
330
3FA
  0
DICTIONARY
  5
3FF
102
{ACAD_REACTORS
330
C
102
}
330
C
100
AcDbDictionary
281
     1
  3
CANNOSCALE
350
400
  3
CMLEADERSTYLE
350
402
  3
CTABLESTYLE
350
401
  3
MSLTSCALE
350
403
  3
XCLIPFRAME
350
408
  0
XRECORD
  5
407
102
{ACAD_REACTORS
330
406
102
}
330
406
100
AcDbXrecord
280
     1
102
VTR_0.000_0.000_1.000_1.000_VISUALSTYLE
340
3E1
102
VTR_0.000_0.000_1.000_1.000_GRIDDISPLAY
 70
     3
102
VTR_0.000_0.000_1.000_1.000_GRIDMAJOR
 70
     5
102
VTR_0.000_0.000_1.000_1.000_DEFAULTLIGHTING
280
     1
102
VTR_0.000_0.000_1.000_1.000_DEFAULTLIGHTINGTYPE
 70
     1
102
VTR_0.000_0.000_1.000_1.000_BRIGHTNESS
141
0.0
102
VTR_0.000_0.000_1.000_1.000_CONTRAST
142
0.0
  0
LAYOUT
  5
1E
102
{ACAD_REACTORS
330
1A
102
}
330
1A
100
AcDbPlotSettings
  1

  2
none_device
  4
ISO_A4_(210.00_x_297.00_MM)
  6

 40
7.5
 41
20.0
 42
7.5
 43
20.0
 44
210.0
 45
297.0
 46
0.0
 47
0.0
 48
0.0
 49
0.0
140
0.0
141
0.0
142
1.0
143
1.0
 70
  1712
 72
     0
 73
     1
 74
     0
  7

 75
     0
 76
     0
 77
     2
 78
   300
147
1.0
148
0.0
149
0.0
100
AcDbLayout
  1
Model
 70
     1
 71
     0
 10
0.0
 20
0.0
 11
12.0
 21
9.0
 12
0.0
 22
0.0
 32
0.0
 14
-715.2089172875335
 24
-416.644528219274
 34
0.0
 15
3142.026982873865
 25
2219.892865706343
 35
0.0
146
0.0
 13
0.0
 23
0.0
 33
0.0
 16
1.0
 26
0.0
 36
0.0
 17
0.0
 27
1.0
 37
0.0
 76
     0
330
1D
331
3BC
  0
LAYOUT
  5
1C
102
{ACAD_REACTORS
330
1A
102
}
330
1A
100
AcDbPlotSettings
  1

  2
none_device
  4
ISO_A4_(210.00_x_297.00_MM)
  6

 40
7.5
 41
20.0
 42
7.5
 43
20.0
 44
210.0
 45
297.0
 46
0.0
 47
0.0
 48
0.0
 49
0.0
140
0.0
141
0.0
142
1.0
143
1.0
 70
   688
 72
     0
 73
     1
 74
     5
  7

 75
    16
 76
     0
 77
     2
 78
   300
147
1.0
148
0.0
149
0.0
100
AcDbLayout
  1
レイアウト 1
 70
     1
 71
     1
 10
0.0
 20
0.0
 11
12.0
 21
9.0
 12
0.0
 22
0.0
 32
0.0
 14
1.000000000000000E+20
 24
1.000000000000000E+20
 34
1.000000000000000E+20
 15
-1.000000000000000E+20
 25
-1.000000000000000E+20
 35
-1.000000000000000E+20
146
0.0
 13
0.0
 23
0.0
 33
0.0
 16
1.0
 26
0.0
 36
0.0
 17
0.0
 27
1.0
 37
0.0
 76
     0
330
1B
  0
MATERIAL
  5
3F7
102
{ACAD_REACTORS
330
3F5
102
}
102
{ACAD_XDICTIONARY
360
43B
102
}
330
3F5
100
AcDbMaterial
  1
ByBlock
  0
MATERIAL
  5
3F6
102
{ACAD_REACTORS
330
3F5
102
}
102
{ACAD_XDICTIONARY
360
439
102
}
330
3F5
100
AcDbMaterial
  1
ByLayer
  0
MATERIAL
  5
3F8
102
{ACAD_REACTORS
330
3F5
102
}
102
{ACAD_XDICTIONARY
360
43D
102
}
330
3F5
100
AcDbMaterial
  1
Global
  0
MLEADERSTYLE
  5
3FC
102
{ACAD_REACTORS
330
3FB
102
}
102
{ACAD_XDICTIONARY
360
442
102
}
330
3FB
100
AcDbMLeaderStyle
170
     2
171
     1
172
     0
 90
        2
 40
0.0
 41
0.0
173
     1
 91
-1056964608
340
16
 92
       -2
290
     1
 42
0.09
291
     1
 43
0.36
  3
Standard
341
0
 44
0.18
300

342
12
174
     1
178
     6
175
     1
176
     0
 93
-1056964608
 45
0.18
292
     0
297
     0
 46
0.18
343
0
 94
-1056964608
 47
1.0
 49
1.0
140
1.0
293
     1
141
0.0
294
     1
177
     0
142
1.0
295
     0
296
     0
143
0.125
1001
ACAD_MLEADERVER
1070
     2
  0
MLINESTYLE
  5
18
102
{ACAD_REACTORS
330
17
102
}
330
17
100
AcDbMlineStyle
  2
Standard
 70
     0
  3

 62
   256
 51
90.0
 52
90.0
 71
     2
 49
0.5
 62
   256
  6
BYLAYER
 49
-0.5
 62
   256
  6
BYLAYER
  0
ACDBPLACEHOLDER
  5
11
102
{ACAD_REACTORS
330
E
102
}
330
E
  0
ACDBPLACEHOLDER
  5
F
102
{ACAD_REACTORS
330
E
102
}
330
E
  0
SCALE
  5
3C7
102
{ACAD_REACTORS
330
3C6
102
}
330
3C6
100
AcDbScale
 70
     0
300
1:1
140
1.0
141
1.0
290
     1
  0
SCALE
  5
3C8
102
{ACAD_REACTORS
330
3C6
102
}
330
3C6
100
AcDbScale
 70
     0
300
1/128" = 1'-0"
140
0.0078125
141
12.0
290
     0
  0
SCALE
  5
3C9
102
{ACAD_REACTORS
330
3C6
102
}
330
3C6
100
AcDbScale
 70
     0
300
1/64" = 1'-0"
140
0.015625
141
12.0
290
     0
  0
SCALE
  5
3CA
102
{ACAD_REACTORS
330
3C6
102
}
330
3C6
100
AcDbScale
 70
     0
300
1/32" = 1'-0"
140
0.03125
141
12.0
290
     0
  0
SCALE
  5
3CB
102
{ACAD_REACTORS
330
3C6
102
}
330
3C6
100
AcDbScale
 70
     0
300
1/16" = 1'-0"
140
0.0625
141
12.0
290
     0
  0
SCALE
  5
3CC
102
{ACAD_REACTORS
330
3C6
102
}
330
3C6
100
AcDbScale
 70
     0
300
3/32" = 1'-0"
140
0.09375
141
12.0
290
     0
  0
SCALE
  5
3CD
102
{ACAD_REACTORS
330
3C6
102
}
330
3C6
100
AcDbScale
 70
     0
300
1/8" = 1'-0"
140
0.125
141
12.0
290
     0
  0
SCALE
  5
3CE
102
{ACAD_REACTORS
330
3C6
102
}
330
3C6
100
AcDbScale
 70
     0
300
3/16" = 1'-0"
140
0.1875
141
12.0
290
     0
  0
SCALE
  5
3CF
102
{ACAD_REACTORS
330
3C6
102
}
330
3C6
100
AcDbScale
 70
     0
300
1/4" = 1'-0"
140
0.25
141
12.0
290
     0
  0
SCALE
  5
3D0
102
{ACAD_REACTORS
330
3C6
102
}
330
3C6
100
AcDbScale
 70
     0
300
3/8" = 1'-0"
140
0.375
141
12.0
290
     0
  0
SCALE
  5
3D1
102
{ACAD_REACTORS
330
3C6
102
}
330
3C6
100
AcDbScale
 70
     0
300
1/2" = 1'-0"
140
0.5
141
12.0
290
     0
  0
SCALE
  5
3D2
102
{ACAD_REACTORS
330
3C6
102
}
330
3C6
100
AcDbScale
 70
     0
300
3/4" = 1'-0"
140
0.75
141
12.0
290
     0
  0
SCALE
  5
3D3
102
{ACAD_REACTORS
330
3C6
102
}
330
3C6
100
AcDbScale
 70
     0
300
1" = 1'-0"
140
1.0
141
12.0
290
     0
  0
SCALE
  5
3D4
102
{ACAD_REACTORS
330
3C6
102
}
330
3C6
100
AcDbScale
 70
     0
300
1-1/2" = 1'-0"
140
1.5
141
12.0
290
     0
  0
SCALE
  5
3D5
102
{ACAD_REACTORS
330
3C6
102
}
330
3C6
100
AcDbScale
 70
     0
300
3" = 1'-0"
140
3.0
141
12.0
290
     0
  0
SCALE
  5
3D6
102
{ACAD_REACTORS
330
3C6
102
}
330
3C6
100
AcDbScale
 70
     0
300
6" = 1'-0"
140
6.0
141
12.0
290
     0
  0
SCALE
  5
3D7
102
{ACAD_REACTORS
330
3C6
102
}
330
3C6
100
AcDbScale
 70
     0
300
1'-0" = 1'-0"
140
12.0
141
12.0
290
     0
  0
TABLESTYLE
  5
3FA
102
{ACAD_REACTORS
330
3F9
102
}
102
{ACAD_XDICTIONARY
360
43F
102
}
330
3F9
100
AcDbTableStyle
  3
Standard
 70
     0
 71
     0
 40
0.06
 41
0.06
280
     0
281
     0
  7
STANDARD
140
0.18
170
     2
 62
     0
 63
   257
283
     0
274
    -2
284
     1
 64
     0
275
    -2
285
     1
 65
     0
276
    -2
286
     1
 66
     0
277
    -2
287
     1
 67
     0
278
    -2
288
     1
 68
     0
279
    -2
289
     1
 69
     0
  7
STANDARD
140
0.25
170
     5
 62
     0
 63
   257
283
     0
274
    -2
284
     1
 64
     0
275
    -2
285
     1
 65
     0
276
    -2
286
     1
 66
     0
277
    -2
287
     1
 67
     0
278
    -2
288
     1
 68
     0
279
    -2
289
     1
 69
     0
  7
STANDARD
140
0.18
170
     5
 62
     0
 63
   257
283
     0
274
    -2
284
     1
 64
     0
275
    -2
285
     1
 65
     0
276
    -2
286
     1
 66
     0
277
    -2
287
     1
 67
     0
278
    -2
288
     1
 68
     0
279
    -2
289
     1
 69
     0
  0
VISUALSTYLE
  5
3E1
102
{ACAD_REACTORS
330
3DC
102
}
102
{ACAD_XDICTIONARY
360
411
102
}
330
3DC
100
AcDbVisualStyle
  2
2dWireframe
 70
     4
 71
     0
 72
     2
 73
     0
 90
        0
 40
0.6
 41
30.0
 62
     5
 63
     7
421
 16777215
 74
     1
 91
        4
 64
     7
 65
   257
 75
     1
175
     1
 42
1.0
 92
        0
 66
   257
 43
1.0
 76
     1
 77
     6
 78
     2
 67
     7
 79
     5
170
     0
171
     0
290
     0
174
     0
 93
        1
 44
0.0
173
     0
291
     0
 45
0.0
1001
ACAD
1000
AcDbSavedByObjectVersion
1070
     0
  0
VISUALSTYLE
  5
3E4
102
{ACAD_REACTORS
330
3DC
102
}
102
{ACAD_XDICTIONARY
360
417
102
}
330
3DC
100
AcDbVisualStyle
  2
Basic
 70
     7
 71
     1
 72
     0
 73
     1
 90
        0
 40
0.6
 41
30.0
 62
     5
 63
     7
421
 16777215
 74
     0
 91
        4
 64
     7
 65
   257
 75
     1
175
     1
 42
1.0
 92
        8
 66
     7
 43
1.0
 76
     1
 77
     6
 78
     2
 67
     7
 79
     5
170
     0
171
     0
290
     0
174
     0
 93
        1
 44
0.0
173
     0
291
     1
 45
0.0
1001
ACAD
1000
AcDbSavedByObjectVersion
1070
     0
  0
VISUALSTYLE
  5
3E8
102
{ACAD_REACTORS
330
3DC
102
}
102
{ACAD_XDICTIONARY
360
41F
102
}
330
3DC
100
AcDbVisualStyle
  2
Brighten
 70
    12
 71
     2
 72
     2
 73
     0
 90
        0
 40
0.6
 41
30.0
 62
     5
 63
     7
421
 16777215
 74
     1
 91
        4
 64
     7
 65
   257
 75
     1
175
     1
 42
1.0
 92
        8
 66
     7
 43
1.0
 76
     1
 77
     6
 78
     2
 67
     7
 79
     5
170
     0
171
     0
290
     0
174
     0
 93
        1
 44
50.0
173
     0
291
     1
 45
0.0
1001
ACAD
1000
AcDbSavedByObjectVersion
1070
     0
  0
VISUALSTYLE
  5
3EC
102
{ACAD_REACTORS
330
3DC
102
}
102
{ACAD_XDICTIONARY
360
427
102
}
330
3DC
100
AcDbVisualStyle
  2
ColorChange
 70
    16
 71
     2
 72
     2
 73
     3
 90
        0
 40
0.6
 41
30.0
 62
     5
 63
     8
421
  8421504
 74
     1
 91
        4
 64
     7
 65
   257
 75
     1
175
     1
 42
1.0
 92
        8
 66
     8
424
  8421504
 43
1.0
 76
     1
 77
     6
 78
     2
 67
     7
 79
     5
170
     0
171
     0
290
     0
174
     0
 93
        1
 44
0.0
173
     0
291
     1
 45
0.0
1001
ACAD
1000
AcDbSavedByObjectVersion
1070
     0
  0
VISUALSTYLE
  5
3E6
102
{ACAD_REACTORS
330
3DC
102
}
102
{ACAD_XDICTIONARY
360
41B
102
}
330
3DC
100
AcDbVisualStyle
  2
Conceptual
 70
     9
 71
     3
 72
     2
 73
     0
 90
        0
 40
0.6
 41
30.0
 62
     5
 63
     7
421
 16777215
 74
     2
 91
        2
 64
     7
 65
   257
 75
     1
175
     1
 42
40.0
 92
        8
 66
     7
 43
1.0
 76
     1
 77
     6
 78
     2
 67
     7
 79
     3
170
     0
171
     0
290
     0
174
     0
 93
        1
 44
0.0
173
     0
291
     0
 45
0.0
1001
ACAD
1000
AcDbSavedByObjectVersion
1070
     0
  0
VISUALSTYLE
  5
3E7
102
{ACAD_REACTORS
330
3DC
102
}
102
{ACAD_XDICTIONARY
360
41D
102
}
330
3DC
100
AcDbVisualStyle
  2
Dim
 70
    11
 71
     2
 72
     2
 73
     0
 90
        0
 40
0.6
 41
30.0
 62
     5
 63
     7
421
 16777215
 74
     1
 91
        4
 64
     7
 65
   257
 75
     1
175
     1
 42
1.0
 92
        8
 66
     7
 43
1.0
 76
     1
 77
     6
 78
     2
 67
     7
 79
     5
170
     0
171
     0
290
     0
174
     0
 93
        1
 44
-50.0
173
     0
291
     1
 45
0.0
1001
ACAD
1000
AcDbSavedByObjectVersion
1070
     0
  0
VISUALSTYLE
  5
3EF
102
{ACAD_REACTORS
330
3DC
102
}
102
{ACAD_XDICTIONARY
360
42D
102
}
330
3DC
100
AcDbVisualStyle
  2
EdgeColorOff
 70
    22
 71
     2
 72
     2
 73
     0
 90
        0
 40
0.6
 41
30.0
 62
     5
 63
     7
421
 16777215
 74
     1
 91
        4
 64
     7
 65
   257
 75
     1
175
     1
 42
1.0
 92
        8
 66
     7
 43
1.0
 76
     1
 77
     6
 78
     2
 67
     7
 79
     5
170
     0
171
     0
290
     0
174
     0
 93
        1
 44
0.0
173
     0
291
     1
 45
0.0
1001
ACAD
1000
AcDbSavedByObjectVersion
1070
     0
  0
VISUALSTYLE
  5
3EB
102
{ACAD_REACTORS
330
3DC
102
}
102
{ACAD_XDICTIONARY
360
425
102
}
330
3DC
100
AcDbVisualStyle
  2
Facepattern
 70
    15
 71
     2
 72
     2
 73
     0
 90
        0
 40
0.6
 41
30.0
 62
     5
 63
     7
421
 16777215
 74
     1
 91
        4
 64
     7
 65
   257
 75
     1
175
     1
 42
1.0
 92
        8
 66
     7
 43
1.0
 76
     1
 77
     6
 78
     2
 67
     7
 79
     5
170
     0
171
     0
290
     0
174
     0
 93
        1
 44
0.0
173
     0
291
     1
 45
0.0
1001
ACAD
1000
AcDbSavedByObjectVersion
1070
     0
  0
VISUALSTYLE
  5
3DD
102
{ACAD_REACTORS
330
3DC
102
}
102
{ACAD_XDICTIONARY
360
409
102
}
330
3DC
100
AcDbVisualStyle
  2
Flat
 70
     0
 71
     2
 72
     1
 73
     1
 90
        2
 40
0.6
 41
30.0
 62
     5
 63
     7
421
 16777215
 74
     0
 91
        4
 64
     7
 65
   257
 75
     1
175
     1
 42
1.0
 92
        8
 66
     7
 43
1.0
 76
     1
 77
     6
 78
     2
 67
     7
 79
     5
170
     0
171
     0
290
     0
174
     0
 93
       13
 44
0.0
173
     0
291
     1
 45
0.0
1001
ACAD
1000
AcDbSavedByObjectVersion
1070
     0
  0
VISUALSTYLE
  5
3DE
102
{ACAD_REACTORS
330
3DC
102
}
102
{ACAD_XDICTIONARY
360
40B
102
}
330
3DC
100
AcDbVisualStyle
  2
FlatWithEdges
 70
     1
 71
     2
 72
     1
 73
     1
 90
        2
 40
0.6
 41
30.0
 62
     5
 63
     7
421
 16777215
 74
     1
 91
        4
 64
     7
 65
   257
 75
     1
175
     1
 42
1.0
 92
        0
 66
   257
 43
1.0
 76
     1
 77
     6
 78
     2
 67
     7
 79
     5
170
     0
171
     0
290
     0
174
     0
 93
       13
 44
0.0
173
     0
291
     1
 45
0.0
1001
ACAD
1000
AcDbSavedByObjectVersion
1070
     0
  0
VISUALSTYLE
  5
3DF
102
{ACAD_REACTORS
330
3DC
102
}
102
{ACAD_XDICTIONARY
360
40D
102
}
330
3DC
100
AcDbVisualStyle
  2
Gouraud
 70
     2
 71
     2
 72
     2
 73
     1
 90
        2
 40
0.6
 41
30.0
 62
     5
 63
     7
421
 16777215
 74
     0
 91
        4
 64
     7
 65
   257
 75
     1
175
     1
 42
1.0
 92
        0
 66
     7
 43
1.0
 76
     1
 77
     6
 78
     2
 67
     7
 79
     5
170
     0
171
     0
290
     0
174
     0
 93
       13
 44
0.0
173
     0
291
     1
 45
0.0
1001
ACAD
1000
AcDbSavedByObjectVersion
1070
     0
  0
VISUALSTYLE
  5
3E0
102
{ACAD_REACTORS
330
3DC
102
}
102
{ACAD_XDICTIONARY
360
40F
102
}
330
3DC
100
AcDbVisualStyle
  2
GouraudWithEdges
 70
     3
 71
     2
 72
     2
 73
     1
 90
        2
 40
0.6
 41
30.0
 62
     5
 63
     7
421
 16777215
 74
     1
 91
        4
 64
     7
 65
   257
 75
     1
175
     1
 42
1.0
 92
        0
 66
   257
 43
1.0
 76
     1
 77
     6
 78
     2
 67
     7
 79
     5
170
     0
171
     0
290
     0
174
     0
 93
       13
 44
0.0
173
     0
291
     1
 45
0.0
1001
ACAD
1000
AcDbSavedByObjectVersion
1070
     0
  0
VISUALSTYLE
  5
3E3
102
{ACAD_REACTORS
330
3DC
102
}
102
{ACAD_XDICTIONARY
360
415
102
}
330
3DC
100
AcDbVisualStyle
  2
Hidden
 70
     6
 71
     1
 72
     2
 73
     2
 90
        0
 40
0.6
 41
30.0
 62
     5
 63
     7
421
 16777215
 74
     2
 91
        2
 64
     7
 65
   257
 75
     2
175
     1
 42
40.0
 92
        0
 66
   257
 43
1.0
 76
     1
 77
     6
 78
     2
 67
     7
 79
     3
170
     0
171
     0
290
     0
174
     0
 93
        1
 44
0.0
173
     0
291
     0
 45
0.0
1001
ACAD
1000
AcDbSavedByObjectVersion
1070
     0
  0
VISUALSTYLE
  5
3ED
102
{ACAD_REACTORS
330
3DC
102
}
102
{ACAD_XDICTIONARY
360
429
102
}
330
3DC
100
AcDbVisualStyle
  2
JitterOff
 70
    20
 71
     2
 72
     2
 73
     0
 90
        0
 40
0.6
 41
30.0
 62
     5
 63
     7
421
 16777215
 74
     1
 91
        4
 64
     7
 65
   257
 75
     1
175
     1
 42
1.0
 92
       10
 66
     7
 43
1.0
 76
     1
 77
     6
 78
     2
 67
     7
 79
     5
170
     0
171
     0
290
     0
174
     0
 93
        1
 44
0.0
173
     0
291
     1
 45
0.0
1001
ACAD
1000
AcDbSavedByObjectVersion
1070
     0
  0
VISUALSTYLE
  5
3EA
102
{ACAD_REACTORS
330
3DC
102
}
102
{ACAD_XDICTIONARY
360
423
102
}
330
3DC
100
AcDbVisualStyle
  2
Linepattern
 70
    14
 71
     2
 72
     2
 73
     0
 90
        0
 40
0.6
 41
30.0
 62
     5
 63
     7
421
 16777215
 74
     1
 91
        4
 64
     7
 65
   257
 75
     7
175
     7
 42
1.0
 92
        8
 66
     7
 43
1.0
 76
     1
 77
     6
 78
     2
 67
     7
 79
     5
170
     0
171
     0
290
     0
174
     0
 93
        1
 44
0.0
173
     0
291
     1
 45
0.0
1001
ACAD
1000
AcDbSavedByObjectVersion
1070
     0
  0
VISUALSTYLE
  5
3EE
102
{ACAD_REACTORS
330
3DC
102
}
102
{ACAD_XDICTIONARY
360
42B
102
}
330
3DC
100
AcDbVisualStyle
  2
OverhangOff
 70
    21
 71
     2
 72
     2
 73
     0
 90
        0
 40
0.6
 41
30.0
 62
     5
 63
     7
421
 16777215
 74
     1
 91
        4
 64
     7
 65
   257
 75
     1
175
     1
 42
1.0
 92
        9
 66
     7
 43
1.0
 76
     1
 77
     6
 78
     2
 67
     7
 79
     5
170
     0
171
     0
290
     0
174
     0
 93
        1
 44
0.0
173
     0
291
     1
 45
0.0
1001
ACAD
1000
AcDbSavedByObjectVersion
1070
     0
  0
VISUALSTYLE
  5
3E5
102
{ACAD_REACTORS
330
3DC
102
}
102
{ACAD_XDICTIONARY
360
419
102
}
330
3DC
100
AcDbVisualStyle
  2
Realistic
 70
     8
 71
     2
 72
     3
 73
     0
 90
        2
 40
0.6
 41
30.0
 62
     5
 63
     7
421
 16777215
 74
     0
 91
        0
 64
     7
 65
   257
 75
     1
175
     1
 42
1.0
 92
        8
 66
   257
 43
1.0
 76
     1
 77
     6
 78
     2
 67
     7
 79
     3
170
     0
171
     0
290
     0
174
     0
 93
       13
 44
0.0
173
     0
291
     0
 45
0.0
1001
ACAD
1000
AcDbSavedByObjectVersion
1070
     0
  0
VISUALSTYLE
  5
3F4
102
{ACAD_REACTORS
330
3DC
102
}
102
{ACAD_XDICTIONARY
360
437
102
}
330
3DC
100
AcDbVisualStyle
  2
Shaded
 70
    27
 71
     2
 72
     2
 73
     1
 90
        2
 40
0.6
 41
30.0
 62
     5
 63
     7
421
 16777215
 74
     0
 91
        4
 64
     7
 65
   257
 75
     1
175
     1
 42
1.0
 92
        8
 66
   257
 43
1.0
 76
     1
 77
     6
 78
     2
 67
   251
425
  5131854
 79
     3
170
     0
171
     0
290
     0
174
     0
 93
        5
 44
0.0
173
     0
291
     0
 45
0.0
1001
ACAD
1000
AcDbSavedByObjectVersion
1070
     0
  0
VISUALSTYLE
  5
3F3
102
{ACAD_REACTORS
330
3DC
102
}
102
{ACAD_XDICTIONARY
360
435
102
}
330
3DC
100
AcDbVisualStyle
  2
Shaded with edges
 70
    26
 71
     2
 72
     2
 73
     1
 90
        2
 40
0.6
 41
30.0
 62
     5
 63
     7
421
 16777215
 74
     1
 91
       10
 64
     7
 65
   257
 75
     2
175
     1
 42
1.0
 92
        8
 66
   257
 43
1.0
 76
     1
 77
     6
 78
     2
 67
     7
 79
     3
170
     0
171
     0
290
     0
174
     0
 93
        5
 44
0.0
173
     0
291
     0
 45
0.0
1001
ACAD
1000
AcDbSavedByObjectVersion
1070
     0
  0
VISUALSTYLE
  5
3F0
102
{ACAD_REACTORS
330
3DC
102
}
102
{ACAD_XDICTIONARY
360
42F
102
}
330
3DC
100
AcDbVisualStyle
  2
Shades of Gray
 70
    23
 71
     2
 72
     2
 73
     3
 90
        0
 40
0.6
 41
30.0
 62
     5
 63
     7
421
 16777215
 74
     2
 91
        2
 64
     7
 65
     7
 75
     1
175
     1
 42
40.0
 92
        8
 66
     7
 43
1.0
 76
     1
 77
     6
 78
     2
 67
     7
 79
     3
170
     0
171
     0
290
     0
174
     0
 93
        1
 44
0.0
173
     0
291
     0
 45
0.0
1001
ACAD
1000
AcDbSavedByObjectVersion
1070
     0
  0
VISUALSTYLE
  5
3F1
102
{ACAD_REACTORS
330
3DC
102
}
102
{ACAD_XDICTIONARY
360
431
102
}
330
3DC
100
AcDbVisualStyle
  2
Sketchy
 70
    24
 71
     1
 72
     2
 73
     2
 90
        0
 40
0.6
 41
30.0
 62
     5
 63
     7
421
 16777215
 74
     2
 91
        2
 64
     7
 65
     7
 75
     1
175
     1
 42
40.0
 92
       11
 66
     7
 43
1.0
 76
     1
 77
     6
 78
     2
 67
     7
 79
     6
170
     0
171
     0
290
     0
174
     0
 93
        1
 44
0.0
173
     0
291
     0
 45
0.0
1001
ACAD
1000
AcDbSavedByObjectVersion
1070
     0
  0
VISUALSTYLE
  5
3E9
102
{ACAD_REACTORS
330
3DC
102
}
102
{ACAD_XDICTIONARY
360
421
102
}
330
3DC
100
AcDbVisualStyle
  2
Thicken
 70
    13
 71
     2
 72
     2
 73
     0
 90
        0
 40
0.6
 41
30.0
 62
     5
 63
     7
421
 16777215
 74
     1
 91
        4
 64
     7
 65
   257
 75
     1
175
     1
 42
1.0
 92
       12
 66
     7
 43
1.0
 76
     1
 77
     6
 78
     2
 67
     7
 79
     5
170
     0
171
     0
290
     0
174
     0
 93
        1
 44
0.0
173
     0
291
     1
 45
0.0
1001
ACAD
1000
AcDbSavedByObjectVersion
1070
     0
  0
VISUALSTYLE
  5
3E2
102
{ACAD_REACTORS
330
3DC
102
}
102
{ACAD_XDICTIONARY
360
413
102
}
330
3DC
100
AcDbVisualStyle
  2
Wireframe
 70
     5
 71
     0
 72
     2
 73
     0
 90
        0
 40
0.6
 41
30.0
 62
     5
 63
     7
421
 16777215
 74
     1
 91
        4
 64
     7
 65
   257
 75
     1
175
     1
 42
1.0
 92
        0
 66
   257
 43
1.0
 76
     1
 77
     6
 78
     2
 67
     7
 79
     5
170
     0
171
     0
290
     0
174
     0
 93
        1
 44
0.0
173
     0
291
     0
 45
0.0
1001
ACAD
1000
AcDbSavedByObjectVersion
1070
     0
  0
VISUALSTYLE
  5
3F2
102
{ACAD_REACTORS
330
3DC
102
}
102
{ACAD_XDICTIONARY
360
433
102
}
330
3DC
100
AcDbVisualStyle
  2
X-Ray
 70
    25
 71
     2
 72
     2
 73
     1
 90
        1
 40
0.5
 41
30.0
 62
     5
 63
     7
421
 16777215
 74
     1
 91
        0
 64
     7
 65
   257
 75
     1
175
     1
 42
1.0
 92
        8
 66
     7
 43
1.0
 76
     1
 77
     6
 78
     2
 67
     7
 79
     3
170
     0
171
     0
290
     0
174
     0
 93
       13
 44
0.0
173
     0
291
     0
 45
0.0
1001
ACAD
1000
AcDbSavedByObjectVersion
1070
     0
  0
DICTIONARYVAR
  5
400
102
{ACAD_REACTORS
330
3FF
102
}
330
3FF
100
DictionaryVariables
280
     0
  1
1:1
  0
DICTIONARYVAR
  5
402
102
{ACAD_REACTORS
330
3FF
102
}
330
3FF
100
DictionaryVariables
280
     0
  1
Standard
  0
DICTIONARYVAR
  5
401
102
{ACAD_REACTORS
330
3FF
102
}
330
3FF
100
DictionaryVariables
280
     0
  1
Standard
  0
DICTIONARYVAR
  5
403
102
{ACAD_REACTORS
330
3FF
102
}
330
3FF
100
DictionaryVariables
280
     0
  1
0
  0
DICTIONARYVAR
  5
408
102
{ACAD_REACTORS
330
3FF
102
}
330
3FF
100
DictionaryVariables
280
     0
  1
2
  0
DICTIONARY
  5
43B
330
3F7
100
AcDbDictionary
280
     1
281
     1
  3
ACAD_XREC_ROUNDTRIP
360
43C
  0
DICTIONARY
  5
439
330
3F6
100
AcDbDictionary
280
     1
281
     1
  3
ACAD_XREC_ROUNDTRIP
360
43A
  0
DICTIONARY
  5
43D
330
3F8
100
AcDbDictionary
280
     1
281
     1
  3
ACAD_XREC_ROUNDTRIP
360
43E
  0
DICTIONARY
  5
442
330
3FC
100
AcDbDictionary
280
     1
281
     1
  3
ACAD_XREC_ROUNDTRIP
360
443
  0
DICTIONARY
  5
43F
330
3FA
100
AcDbDictionary
280
     1
281
     1
  3
ACAD_ROUNDTRIP_2008_TABLESTYLE_CELLSTYLEMAP
360
441
  3
ACAD_XREC_ROUNDTRIP
360
440
  0
DICTIONARY
  5
411
330
3E1
100
AcDbDictionary
280
     1
281
     1
  3
ACAD_XREC_ROUNDTRIP
360
412
  0
DICTIONARY
  5
417
330
3E4
100
AcDbDictionary
280
     1
281
     1
  3
ACAD_XREC_ROUNDTRIP
360
418
  0
DICTIONARY
  5
41F
330
3E8
100
AcDbDictionary
280
     1
281
     1
  3
ACAD_XREC_ROUNDTRIP
360
420
  0
DICTIONARY
  5
427
330
3EC
100
AcDbDictionary
280
     1
281
     1
  3
ACAD_XREC_ROUNDTRIP
360
428
  0
DICTIONARY
  5
41B
330
3E6
100
AcDbDictionary
280
     1
281
     1
  3
ACAD_XREC_ROUNDTRIP
360
41C
  0
DICTIONARY
  5
41D
330
3E7
100
AcDbDictionary
280
     1
281
     1
  3
ACAD_XREC_ROUNDTRIP
360
41E
  0
DICTIONARY
  5
42D
330
3EF
100
AcDbDictionary
280
     1
281
     1
  3
ACAD_XREC_ROUNDTRIP
360
42E
  0
DICTIONARY
  5
425
330
3EB
100
AcDbDictionary
280
     1
281
     1
  3
ACAD_XREC_ROUNDTRIP
360
426
  0
DICTIONARY
  5
409
330
3DD
100
AcDbDictionary
280
     1
281
     1
  3
ACAD_XREC_ROUNDTRIP
360
40A
  0
DICTIONARY
  5
40B
330
3DE
100
AcDbDictionary
280
     1
281
     1
  3
ACAD_XREC_ROUNDTRIP
360
40C
  0
DICTIONARY
  5
40D
330
3DF
100
AcDbDictionary
280
     1
281
     1
  3
ACAD_XREC_ROUNDTRIP
360
40E
  0
DICTIONARY
  5
40F
330
3E0
100
AcDbDictionary
280
     1
281
     1
  3
ACAD_XREC_ROUNDTRIP
360
410
  0
DICTIONARY
  5
415
330
3E3
100
AcDbDictionary
280
     1
281
     1
  3
ACAD_XREC_ROUNDTRIP
360
416
  0
DICTIONARY
  5
429
330
3ED
100
AcDbDictionary
280
     1
281
     1
  3
ACAD_XREC_ROUNDTRIP
360
42A
  0
DICTIONARY
  5
423
330
3EA
100
AcDbDictionary
280
     1
281
     1
  3
ACAD_XREC_ROUNDTRIP
360
424
  0
DICTIONARY
  5
42B
330
3EE
100
AcDbDictionary
280
     1
281
     1
  3
ACAD_XREC_ROUNDTRIP
360
42C
  0
DICTIONARY
  5
419
330
3E5
100
AcDbDictionary
280
     1
281
     1
  3
ACAD_XREC_ROUNDTRIP
360
41A
  0
DICTIONARY
  5
437
330
3F4
100
AcDbDictionary
280
     1
281
     1
  3
ACAD_XREC_ROUNDTRIP
360
438
  0
DICTIONARY
  5
435
330
3F3
100
AcDbDictionary
280
     1
281
     1
  3
ACAD_XREC_ROUNDTRIP
360
436
  0
DICTIONARY
  5
42F
330
3F0
100
AcDbDictionary
280
     1
281
     1
  3
ACAD_XREC_ROUNDTRIP
360
430
  0
DICTIONARY
  5
431
330
3F1
100
AcDbDictionary
280
     1
281
     1
  3
ACAD_XREC_ROUNDTRIP
360
432
  0
DICTIONARY
  5
421
330
3E9
100
AcDbDictionary
280
     1
281
     1
  3
ACAD_XREC_ROUNDTRIP
360
422
  0
DICTIONARY
  5
413
330
3E2
100
AcDbDictionary
280
     1
281
     1
  3
ACAD_XREC_ROUNDTRIP
360
414
  0
DICTIONARY
  5
433
330
3F2
100
AcDbDictionary
280
     1
281
     1
  3
ACAD_XREC_ROUNDTRIP
360
434
  0
XRECORD
  5
43C
102
{ACAD_REACTORS
330
43B
102
}
330
43B
100
AcDbXrecord
280
     1
102
MATERIAL
148
0.0
149
0.0
149
0.0
 93
        0
 94
      127
282
     0
 72
     1
 77
     1
171
     1
175
     1
179
     1
273
     0
  0
XRECORD
  5
43A
102
{ACAD_REACTORS
330
439
102
}
330
439
100
AcDbXrecord
280
     1
102
MATERIAL
148
0.0
149
0.0
149
0.0
 93
        0
 94
      127
282
     0
 72
     1
 77
     1
171
     1
175
     1
179
     1
273
     0
  0
XRECORD
  5
43E
102
{ACAD_REACTORS
330
43D
102
}
330
43D
100
AcDbXrecord
280
     1
102
MATERIAL
148
0.0
149
0.0
149
0.0
 93
        0
 94
      127
282
     0
 72
     1
 77
     1
171
     1
175
     1
179
     1
273
     0
  0
XRECORD
  5
443
102
{ACAD_REACTORS
330
442
102
}
330
442
100
AcDbXrecord
280
     1
102
ACAD_ROUNDTRIP_2010_MLEADER_STYLE
  0
CELLSTYLEMAP
  5
441
102
{ACAD_REACTORS
330
43F
102
}
330
43F
100
AcDbCellStyleMap
 90
        3
300
CELLSTYLE
  1
TABLEFORMAT_BEGIN
 90
        5
170
     1
 91
        0
 92
    32768
 62
   257
 93
        1
300
CONTENTFORMAT
  1
CONTENTFORMAT_BEGIN
 90
        0
 91
        0
 92
      512
 93
        0
300

 40
0.0
140
1.0
 94
        5
 62
     0
340
12
144
0.25
309
CONTENTFORMAT_END
171
     1
301
MARGIN
  1
CELLMARGIN_BEGIN
 40
0.06
 40
0.06
 40
0.06
 40
0.06
 40
0.06
 40
0.06
309
CELLMARGIN_END
 94
        6
 95
        1
302
GRIDFORMAT
  1
GRIDFORMAT_BEGIN
 90
        0
 91
        1
 62
     0
 92
       -2
340
14
 93
        0
 40
0.045
309
GRIDFORMAT_END
 95
        2
302
GRIDFORMAT
  1
GRIDFORMAT_BEGIN
 90
        0
 91
        1
 62
     0
 92
       -2
340
14
 93
        0
 40
0.045
309
GRIDFORMAT_END
 95
        4
302
GRIDFORMAT
  1
GRIDFORMAT_BEGIN
 90
        0
 91
        1
 62
     0
 92
       -2
340
14
 93
        0
 40
0.045
309
GRIDFORMAT_END
 95
        8
302
GRIDFORMAT
  1
GRIDFORMAT_BEGIN
 90
        0
 91
        1
 62
     0
 92
       -2
340
14
 93
        0
 40
0.045
309
GRIDFORMAT_END
 95
       16
302
GRIDFORMAT
  1
GRIDFORMAT_BEGIN
 90
        0
 91
        1
 62
     0
 92
       -2
340
14
 93
        0
 40
0.045
309
GRIDFORMAT_END
 95
       32
302
GRIDFORMAT
  1
GRIDFORMAT_BEGIN
 90
        0
 91
        1
 62
     0
 92
       -2
340
14
 93
        0
 40
0.045
309
GRIDFORMAT_END
309
TABLEFORMAT_END
  1
CELLSTYLE_BEGIN
 90
        1
 91
        1
300
_TITLE
309
CELLSTYLE_END
300
CELLSTYLE
  1
TABLEFORMAT_BEGIN
 90
        5
170
     1
 91
        0
 92
        0
 62
   257
 93
        1
300
CONTENTFORMAT
  1
CONTENTFORMAT_BEGIN
 90
        0
 91
        0
 92
      512
 93
        0
300

 40
0.0
140
1.0
 94
        5
 62
     0
340
12
144
0.18
309
CONTENTFORMAT_END
171
     1
301
MARGIN
  1
CELLMARGIN_BEGIN
 40
0.06
 40
0.06
 40
0.06
 40
0.06
 40
0.06
 40
0.06
309
CELLMARGIN_END
 94
        6
 95
        1
302
GRIDFORMAT
  1
GRIDFORMAT_BEGIN
 90
        0
 91
        1
 62
     0
 92
       -2
340
14
 93
        0
 40
0.045
309
GRIDFORMAT_END
 95
        2
302
GRIDFORMAT
  1
GRIDFORMAT_BEGIN
 90
        0
 91
        1
 62
     0
 92
       -2
340
14
 93
        0
 40
0.045
309
GRIDFORMAT_END
 95
        4
302
GRIDFORMAT
  1
GRIDFORMAT_BEGIN
 90
        0
 91
        1
 62
     0
 92
       -2
340
14
 93
        0
 40
0.045
309
GRIDFORMAT_END
 95
        8
302
GRIDFORMAT
  1
GRIDFORMAT_BEGIN
 90
        0
 91
        1
 62
     0
 92
       -2
340
14
 93
        0
 40
0.045
309
GRIDFORMAT_END
 95
       16
302
GRIDFORMAT
  1
GRIDFORMAT_BEGIN
 90
        0
 91
        1
 62
     0
 92
       -2
340
14
 93
        0
 40
0.045
309
GRIDFORMAT_END
 95
       32
302
GRIDFORMAT
  1
GRIDFORMAT_BEGIN
 90
        0
 91
        1
 62
     0
 92
       -2
340
14
 93
        0
 40
0.045
309
GRIDFORMAT_END
309
TABLEFORMAT_END
  1
CELLSTYLE_BEGIN
 90
        2
 91
        1
300
_HEADER
309
CELLSTYLE_END
300
CELLSTYLE
  1
TABLEFORMAT_BEGIN
 90
        5
170
     1
 91
        0
 92
        0
 62
   257
 93
        1
300
CONTENTFORMAT
  1
CONTENTFORMAT_BEGIN
 90
        0
 91
        0
 92
      512
 93
        0
300

 40
0.0
140
1.0
 94
        2
 62
     0
340
12
144
0.18
309
CONTENTFORMAT_END
171
     1
301
MARGIN
  1
CELLMARGIN_BEGIN
 40
0.06
 40
0.06
 40
0.06
 40
0.06
 40
0.06
 40
0.06
309
CELLMARGIN_END
 94
        6
 95
        1
302
GRIDFORMAT
  1
GRIDFORMAT_BEGIN
 90
        0
 91
        1
 62
     0
 92
       -2
340
14
 93
        0
 40
0.045
309
GRIDFORMAT_END
 95
        2
302
GRIDFORMAT
  1
GRIDFORMAT_BEGIN
 90
        0
 91
        1
 62
     0
 92
       -2
340
14
 93
        0
 40
0.045
309
GRIDFORMAT_END
 95
        4
302
GRIDFORMAT
  1
GRIDFORMAT_BEGIN
 90
        0
 91
        1
 62
     0
 92
       -2
340
14
 93
        0
 40
0.045
309
GRIDFORMAT_END
 95
        8
302
GRIDFORMAT
  1
GRIDFORMAT_BEGIN
 90
        0
 91
        1
 62
     0
 92
       -2
340
14
 93
        0
 40
0.045
309
GRIDFORMAT_END
 95
       16
302
GRIDFORMAT
  1
GRIDFORMAT_BEGIN
 90
        0
 91
        1
 62
     0
 92
       -2
340
14
 93
        0
 40
0.045
309
GRIDFORMAT_END
 95
       32
302
GRIDFORMAT
  1
GRIDFORMAT_BEGIN
 90
        0
 91
        1
 62
     0
 92
       -2
340
14
 93
        0
 40
0.045
309
GRIDFORMAT_END
309
TABLEFORMAT_END
  1
CELLSTYLE_BEGIN
 90
        3
 91
        2
300
_DATA
309
CELLSTYLE_END
  0
XRECORD
  5
440
102
{ACAD_REACTORS
330
43F
102
}
330
43F
100
AcDbXrecord
280
     1
102
ACAD_ROUNDTRIP_PRE2007_TABLESTYLE
 90
      512
 91
        0
  1

 92
      512
 93
        0
  2

 94
      512
 95
        0
  3

  0
XRECORD
  5
412
102
{ACAD_REACTORS
330
411
102
}
330
411
100
AcDbXrecord
280
     1
102
RTVSPropertyOp0
 70
     1
102
RTVSPropertyOp1
 70
     1
102
RTVSPropertyOp2
 70
     1
102
RTVSPropertyOp3
 70
     1
102
RTVSPropertyOp4
 70
     1
102
RTVSPropertyOp5
 70
     1
102
RTVSPropertyOp6
 70
     1
102
RTVSPropertyOp7
 70
     1
102
RTVSPropertyOp8
 70
     1
102
RTVSPropertyOp9
 70
     1
102
RTVSPropertyOp10
 70
     1
102
RTVSPropertyOp11
 70
     1
102
RTVSPropertyOp12
 70
     1
102
RTVSPropertyOp13
 70
     1
102
RTVSPropertyOp14
 70
     1
102
RTVSPropertyOp15
 70
     1
102
RTVSPropertyOp16
 70
     1
102
RTVSPropertyOp17
 70
     1
102
RTVSPropertyOp18
 70
     1
102
RTVSPropertyOp19
 70
     1
102
RTVSPropertyOp20
 70
     1
102
RTVSPropertyOp21
 70
     1
102
RTVSPropertyOp22
 70
     1
102
RTVSPropertyOp23
 70
     1
102
RTVSPropertyOp24
 70
     1
102
RTVSPropertyOp25
 70
     1
102
RTVSPropertyOp26
 70
     1
102
RTVSPropertyOp27
 70
     1
102
RTVSPropertyOp28
 70
     1
102
RTVSPropertyOp29
 70
     1
102
RTVSPropertyOp30
 70
     1
102
RTVSPropertyOp31
 70
     1
102
RTVSPropertyOp32
 70
     1
102
RTVSPropertyOp33
 70
     1
102
RTVSPropertyOp34
 70
     1
102
RTVSPropertyOp35
 70
     1
102
RTVSPropertyOp36
 70
     1
102
RTVSPropertyOp37
 70
     1
102
RTVSPropertyOp38
 70
     1
102
RTVSPropertyOp39
 70
     1
102
RTVSPropertyOp40
 70
     1
102
RTVSPropertyOp41
 70
     1
102
RTVSPropertyOp42
 70
     1
102
RTVSPropertyOp43
 70
     1
102
RTVSPropertyOp44
 70
     1
102
RTVSPropertyOp45
 70
     1
102
RTVSPropertyOp46
 70
     1
102
RTVSPropertyOp47
 70
     1
102
RTVSPropertyOp48
 70
     1
102
RTVSPropertyOp49
 70
     1
102
RTVSPropertyOp50
 70
     1
102
RTVSPropertyOp51
 70
     0
102
RTVSPropertyOp52
 70
     0
102
RTVSPropertyOp53
 70
     1
102
RTVSPropertyOp54
 70
     1
102
RTVSPropertyOp55
 70
     1
102
RTVSPropertyOp56
 70
     1
102
RTVSPropertyOp57
 70
     1
102
RTVSPost2010Prop28
280
     1
102
RTVSPost2010PropOp28
 70
     1
102
RTVSPost2010Prop29
280
     1
102
RTVSPost2010PropOp29
 70
     1
102
RTVSPost2010Prop30
280
     0
102
RTVSPost2010PropOp30
 70
     1
102
RTVSPost2010Prop31
280
     0
102
RTVSPost2010PropOp31
 70
     1
102
RTVSPost2010Prop32
280
     0
102
RTVSPost2010PropOp32
 70
     1
102
RTVSPost2010Prop33
280
     0
102
RTVSPost2010PropOp33
 70
     1
102
RTVSPost2010Prop34
280
     0
102
RTVSPost2010PropOp34
 70
     1
102
RTVSPost2010Prop35
280
     0
102
RTVSPost2010PropOp35
 70
     1
102
RTVSPost2010Prop36
280
     0
102
RTVSPost2010PropOp36
 70
     1
102
RTVSPost2010Prop37
 90
       50
102
RTVSPost2010PropOp37
 70
     1
102
RTVSPost2010Prop38
140
0.0
102
RTVSPost2010PropOp38
 70
     1
102
RTVSPost2010Prop39
140
1.0
102
RTVSPost2010PropOp39
 70
     1
102
RTVSPost2010Prop40
 90
        0
102
RTVSPost2010PropOp40
 70
     1
102
RTVSPost2010Prop41ColorIndex
 90
       18
102
RTVSPost2010Prop41ColorRGB
 90
        0
102
RTVSPost2010PropOp41
 70
     1
102
RTVSPost2010Prop42
 90
       50
102
RTVSPost2010PropOp42
 70
     1
102
RTVSPost2010Prop43
 90
        3
102
RTVSPost2010PropOp43
 70
     1
102
RTVSPost2010Prop44ColorIndex
 90
        5
102
RTVSPost2010Prop44ColorRGB
 90
      255
102
RTVSPost2010PropOp44
 70
     1
102
RTVSPost2010Prop45
280
     0
102
RTVSPost2010PropOp45
 70
     1
102
RTVSPost2010Prop46
 90
       50
102
RTVSPost2010PropOp46
 70
     1
102
RTVSPost2010Prop47
 90
       50
102
RTVSPost2010PropOp47
 70
     1
102
RTVSPost2010Prop48
 90
       50
102
RTVSPost2010PropOp48
 70
     1
102
RTVSPost2010Prop49
280
     0
102
RTVSPost2010PropOp49
 70
     1
102
RTVSPost2010Prop50
 90
       50
102
RTVSPost2010PropOp50
 70
     1
102
RTVSPost2010Prop51ColorIndex
 90
      256
102
RTVSPost2010Prop51ColorRGB
 90
-16777216
102
RTVSPost2010PropOp51
 70
     0
102
RTVSPost2010Prop52
140
1.0
102
RTVSPost2010PropOp52
 70
     0
102
RTVSPost2010Prop53
 90
        2
102
RTVSPost2010PropOp53
 70
     1
102
RTVSPost2010Prop54
  1
strokes_ogs.tif
102
RTVSPost2010PropOp54
 70
     1
102
RTVSPost2010Prop55
280
     0
102
RTVSPost2010PropOp55
 70
     1
102
RTVSPost2010Prop56
140
1.0
102
RTVSPost2010PropOp56
 70
     1
102
RTVSPost2010Prop57
140
1.0
102
RTVSPost2010PropOp57
 70
     1
  0
XRECORD
  5
418
102
{ACAD_REACTORS
330
417
102
}
330
417
100
AcDbXrecord
280
     1
102
RTVSPropertyOp0
 70
     1
102
RTVSPropertyOp1
 70
     1
102
RTVSPropertyOp2
 70
     1
102
RTVSPropertyOp3
 70
     1
102
RTVSPropertyOp4
 70
     1
102
RTVSPropertyOp5
 70
     1
102
RTVSPropertyOp6
 70
     1
102
RTVSPropertyOp7
 70
     1
102
RTVSPropertyOp8
 70
     1
102
RTVSPropertyOp9
 70
     1
102
RTVSPropertyOp10
 70
     1
102
RTVSPropertyOp11
 70
     1
102
RTVSPropertyOp12
 70
     1
102
RTVSPropertyOp13
 70
     1
102
RTVSPropertyOp14
 70
     1
102
RTVSPropertyOp15
 70
     1
102
RTVSPropertyOp16
 70
     1
102
RTVSPropertyOp17
 70
     1
102
RTVSPropertyOp18
 70
     1
102
RTVSPropertyOp19
 70
     1
102
RTVSPropertyOp20
 70
     1
102
RTVSPropertyOp21
 70
     1
102
RTVSPropertyOp22
 70
     1
102
RTVSPropertyOp23
 70
     1
102
RTVSPropertyOp24
 70
     1
102
RTVSPropertyOp25
 70
     1
102
RTVSPropertyOp26
 70
     1
102
RTVSPropertyOp27
 70
     1
102
RTVSPropertyOp28
 70
     1
102
RTVSPropertyOp29
 70
     1
102
RTVSPropertyOp30
 70
     1
102
RTVSPropertyOp31
 70
     1
102
RTVSPropertyOp32
 70
     1
102
RTVSPropertyOp33
 70
     1
102
RTVSPropertyOp34
 70
     1
102
RTVSPropertyOp35
 70
     1
102
RTVSPropertyOp36
 70
     1
102
RTVSPropertyOp37
 70
     1
102
RTVSPropertyOp38
 70
     1
102
RTVSPropertyOp39
 70
     1
102
RTVSPropertyOp40
 70
     1
102
RTVSPropertyOp41
 70
     1
102
RTVSPropertyOp42
 70
     1
102
RTVSPropertyOp43
 70
     1
102
RTVSPropertyOp44
 70
     1
102
RTVSPropertyOp45
 70
     1
102
RTVSPropertyOp46
 70
     1
102
RTVSPropertyOp47
 70
     1
102
RTVSPropertyOp48
 70
     1
102
RTVSPropertyOp49
 70
     1
102
RTVSPropertyOp50
 70
     1
102
RTVSPropertyOp51
 70
     0
102
RTVSPropertyOp52
 70
     0
102
RTVSPropertyOp53
 70
     1
102
RTVSPropertyOp54
 70
     1
102
RTVSPropertyOp55
 70
     1
102
RTVSPropertyOp56
 70
     1
102
RTVSPropertyOp57
 70
     1
102
RTVSPost2010Prop28
280
     0
102
RTVSPost2010PropOp28
 70
     1
102
RTVSPost2010Prop29
280
     1
102
RTVSPost2010PropOp29
 70
     1
102
RTVSPost2010Prop30
280
     1
102
RTVSPost2010PropOp30
 70
     1
102
RTVSPost2010Prop31
280
     0
102
RTVSPost2010PropOp31
 70
     1
102
RTVSPost2010Prop32
280
     0
102
RTVSPost2010PropOp32
 70
     1
102
RTVSPost2010Prop33
280
     0
102
RTVSPost2010PropOp33
 70
     1
102
RTVSPost2010Prop34
280
     0
102
RTVSPost2010PropOp34
 70
     1
102
RTVSPost2010Prop35
280
     0
102
RTVSPost2010PropOp35
 70
     1
102
RTVSPost2010Prop36
280
     0
102
RTVSPost2010PropOp36
 70
     1
102
RTVSPost2010Prop37
 90
       50
102
RTVSPost2010PropOp37
 70
     1
102
RTVSPost2010Prop38
140
0.0
102
RTVSPost2010PropOp38
 70
     1
102
RTVSPost2010Prop39
140
1.0
102
RTVSPost2010PropOp39
 70
     1
102
RTVSPost2010Prop40
 90
        0
102
RTVSPost2010PropOp40
 70
     1
102
RTVSPost2010Prop41ColorIndex
 90
       18
102
RTVSPost2010Prop41ColorRGB
 90
        0
102
RTVSPost2010PropOp41
 70
     1
102
RTVSPost2010Prop42
 90
       50
102
RTVSPost2010PropOp42
 70
     1
102
RTVSPost2010Prop43
 90
        3
102
RTVSPost2010PropOp43
 70
     1
102
RTVSPost2010Prop44ColorIndex
 90
        5
102
RTVSPost2010Prop44ColorRGB
 90
      255
102
RTVSPost2010PropOp44
 70
     1
102
RTVSPost2010Prop45
280
     0
102
RTVSPost2010PropOp45
 70
     1
102
RTVSPost2010Prop46
 90
       50
102
RTVSPost2010PropOp46
 70
     1
102
RTVSPost2010Prop47
 90
       50
102
RTVSPost2010PropOp47
 70
     1
102
RTVSPost2010Prop48
 90
       50
102
RTVSPost2010PropOp48
 70
     1
102
RTVSPost2010Prop49
280
     0
102
RTVSPost2010PropOp49
 70
     1
102
RTVSPost2010Prop50
 90
       50
102
RTVSPost2010PropOp50
 70
     1
102
RTVSPost2010Prop51ColorIndex
 90
      256
102
RTVSPost2010Prop51ColorRGB
 90
-16777216
102
RTVSPost2010PropOp51
 70
     0
102
RTVSPost2010Prop52
140
1.0
102
RTVSPost2010PropOp52
 70
     0
102
RTVSPost2010Prop53
 90
        2
102
RTVSPost2010PropOp53
 70
     1
102
RTVSPost2010Prop54
  1
strokes_ogs.tif
102
RTVSPost2010PropOp54
 70
     1
102
RTVSPost2010Prop55
280
     0
102
RTVSPost2010PropOp55
 70
     1
102
RTVSPost2010Prop56
140
1.0
102
RTVSPost2010PropOp56
 70
     1
102
RTVSPost2010Prop57
140
1.0
102
RTVSPost2010PropOp57
 70
     1
  0
XRECORD
  5
420
102
{ACAD_REACTORS
330
41F
102
}
330
41F
100
AcDbXrecord
280
     1
102
RTVSPropertyOp0
 70
     1
102
RTVSPropertyOp1
 70
     1
102
RTVSPropertyOp2
 70
     1
102
RTVSPropertyOp3
 70
     1
102
RTVSPropertyOp4
 70
     1
102
RTVSPropertyOp5
 70
     1
102
RTVSPropertyOp6
 70
     1
102
RTVSPropertyOp7
 70
     1
102
RTVSPropertyOp8
 70
     1
102
RTVSPropertyOp9
 70
     1
102
RTVSPropertyOp10
 70
     1
102
RTVSPropertyOp11
 70
     1
102
RTVSPropertyOp12
 70
     1
102
RTVSPropertyOp13
 70
     1
102
RTVSPropertyOp14
 70
     1
102
RTVSPropertyOp15
 70
     1
102
RTVSPropertyOp16
 70
     1
102
RTVSPropertyOp17
 70
     1
102
RTVSPropertyOp18
 70
     1
102
RTVSPropertyOp19
 70
     1
102
RTVSPropertyOp20
 70
     1
102
RTVSPropertyOp21
 70
     1
102
RTVSPropertyOp22
 70
     1
102
RTVSPropertyOp23
 70
     1
102
RTVSPropertyOp24
 70
     1
102
RTVSPropertyOp25
 70
     1
102
RTVSPropertyOp26
 70
     1
102
RTVSPropertyOp27
 70
     1
102
RTVSPropertyOp28
 70
     1
102
RTVSPropertyOp29
 70
     1
102
RTVSPropertyOp30
 70
     1
102
RTVSPropertyOp31
 70
     1
102
RTVSPropertyOp32
 70
     1
102
RTVSPropertyOp33
 70
     1
102
RTVSPropertyOp34
 70
     1
102
RTVSPropertyOp35
 70
     1
102
RTVSPropertyOp36
 70
     1
102
RTVSPropertyOp37
 70
     1
102
RTVSPropertyOp38
 70
     1
102
RTVSPropertyOp39
 70
     1
102
RTVSPropertyOp40
 70
     1
102
RTVSPropertyOp41
 70
     1
102
RTVSPropertyOp42
 70
     1
102
RTVSPropertyOp43
 70
     1
102
RTVSPropertyOp44
 70
     1
102
RTVSPropertyOp45
 70
     1
102
RTVSPropertyOp46
 70
     1
102
RTVSPropertyOp47
 70
     1
102
RTVSPropertyOp48
 70
     1
102
RTVSPropertyOp49
 70
     1
102
RTVSPropertyOp50
 70
     1
102
RTVSPropertyOp51
 70
     0
102
RTVSPropertyOp52
 70
     0
102
RTVSPropertyOp53
 70
     1
102
RTVSPropertyOp54
 70
     1
102
RTVSPropertyOp55
 70
     1
102
RTVSPropertyOp56
 70
     1
102
RTVSPropertyOp57
 70
     1
102
RTVSPost2010Prop28
280
     0
102
RTVSPost2010PropOp28
 70
     1
102
RTVSPost2010Prop29
280
     1
102
RTVSPost2010PropOp29
 70
     1
102
RTVSPost2010Prop30
280
     1
102
RTVSPost2010PropOp30
 70
     1
102
RTVSPost2010Prop31
280
     0
102
RTVSPost2010PropOp31
 70
     1
102
RTVSPost2010Prop32
280
     0
102
RTVSPost2010PropOp32
 70
     1
102
RTVSPost2010Prop33
280
     0
102
RTVSPost2010PropOp33
 70
     1
102
RTVSPost2010Prop34
280
     0
102
RTVSPost2010PropOp34
 70
     1
102
RTVSPost2010Prop35
280
     0
102
RTVSPost2010PropOp35
 70
     1
102
RTVSPost2010Prop36
280
     0
102
RTVSPost2010PropOp36
 70
     1
102
RTVSPost2010Prop37
 90
       50
102
RTVSPost2010PropOp37
 70
     1
102
RTVSPost2010Prop38
140
0.0
102
RTVSPost2010PropOp38
 70
     1
102
RTVSPost2010Prop39
140
1.0
102
RTVSPost2010PropOp39
 70
     1
102
RTVSPost2010Prop40
 90
        0
102
RTVSPost2010PropOp40
 70
     1
102
RTVSPost2010Prop41ColorIndex
 90
       18
102
RTVSPost2010Prop41ColorRGB
 90
        0
102
RTVSPost2010PropOp41
 70
     1
102
RTVSPost2010Prop42
 90
       50
102
RTVSPost2010PropOp42
 70
     1
102
RTVSPost2010Prop43
 90
        3
102
RTVSPost2010PropOp43
 70
     1
102
RTVSPost2010Prop44ColorIndex
 90
        5
102
RTVSPost2010Prop44ColorRGB
 90
      255
102
RTVSPost2010PropOp44
 70
     1
102
RTVSPost2010Prop45
280
     0
102
RTVSPost2010PropOp45
 70
     1
102
RTVSPost2010Prop46
 90
       50
102
RTVSPost2010PropOp46
 70
     1
102
RTVSPost2010Prop47
 90
       50
102
RTVSPost2010PropOp47
 70
     1
102
RTVSPost2010Prop48
 90
       50
102
RTVSPost2010PropOp48
 70
     1
102
RTVSPost2010Prop49
280
     0
102
RTVSPost2010PropOp49
 70
     1
102
RTVSPost2010Prop50
 90
       50
102
RTVSPost2010PropOp50
 70
     1
102
RTVSPost2010Prop51ColorIndex
 90
      256
102
RTVSPost2010Prop51ColorRGB
 90
-16777216
102
RTVSPost2010PropOp51
 70
     0
102
RTVSPost2010Prop52
140
1.0
102
RTVSPost2010PropOp52
 70
     0
102
RTVSPost2010Prop53
 90
        2
102
RTVSPost2010PropOp53
 70
     1
102
RTVSPost2010Prop54
  1
strokes_ogs.tif
102
RTVSPost2010PropOp54
 70
     1
102
RTVSPost2010Prop55
280
     0
102
RTVSPost2010PropOp55
 70
     1
102
RTVSPost2010Prop56
140
1.0
102
RTVSPost2010PropOp56
 70
     1
102
RTVSPost2010Prop57
140
1.0
102
RTVSPost2010PropOp57
 70
     1
  0
XRECORD
  5
428
102
{ACAD_REACTORS
330
427
102
}
330
427
100
AcDbXrecord
280
     1
102
RTVSPropertyOp0
 70
     1
102
RTVSPropertyOp1
 70
     1
102
RTVSPropertyOp2
 70
     1
102
RTVSPropertyOp3
 70
     1
102
RTVSPropertyOp4
 70
     1
102
RTVSPropertyOp5
 70
     1
102
RTVSPropertyOp6
 70
     1
102
RTVSPropertyOp7
 70
     1
102
RTVSPropertyOp8
 70
     1
102
RTVSPropertyOp9
 70
     1
102
RTVSPropertyOp10
 70
     1
102
RTVSPropertyOp11
 70
     1
102
RTVSPropertyOp12
 70
     1
102
RTVSPropertyOp13
 70
     1
102
RTVSPropertyOp14
 70
     1
102
RTVSPropertyOp15
 70
     1
102
RTVSPropertyOp16
 70
     1
102
RTVSPropertyOp17
 70
     1
102
RTVSPropertyOp18
 70
     1
102
RTVSPropertyOp19
 70
     1
102
RTVSPropertyOp20
 70
     1
102
RTVSPropertyOp21
 70
     1
102
RTVSPropertyOp22
 70
     1
102
RTVSPropertyOp23
 70
     1
102
RTVSPropertyOp24
 70
     1
102
RTVSPropertyOp25
 70
     1
102
RTVSPropertyOp26
 70
     1
102
RTVSPropertyOp27
 70
     1
102
RTVSPropertyOp28
 70
     1
102
RTVSPropertyOp29
 70
     1
102
RTVSPropertyOp30
 70
     1
102
RTVSPropertyOp31
 70
     1
102
RTVSPropertyOp32
 70
     1
102
RTVSPropertyOp33
 70
     1
102
RTVSPropertyOp34
 70
     1
102
RTVSPropertyOp35
 70
     1
102
RTVSPropertyOp36
 70
     1
102
RTVSPropertyOp37
 70
     1
102
RTVSPropertyOp38
 70
     1
102
RTVSPropertyOp39
 70
     1
102
RTVSPropertyOp40
 70
     1
102
RTVSPropertyOp41
 70
     1
102
RTVSPropertyOp42
 70
     1
102
RTVSPropertyOp43
 70
     1
102
RTVSPropertyOp44
 70
     1
102
RTVSPropertyOp45
 70
     1
102
RTVSPropertyOp46
 70
     1
102
RTVSPropertyOp47
 70
     1
102
RTVSPropertyOp48
 70
     1
102
RTVSPropertyOp49
 70
     1
102
RTVSPropertyOp50
 70
     1
102
RTVSPropertyOp51
 70
     0
102
RTVSPropertyOp52
 70
     0
102
RTVSPropertyOp53
 70
     1
102
RTVSPropertyOp54
 70
     1
102
RTVSPropertyOp55
 70
     1
102
RTVSPropertyOp56
 70
     1
102
RTVSPropertyOp57
 70
     1
102
RTVSPost2010Prop28
280
     0
102
RTVSPost2010PropOp28
 70
     1
102
RTVSPost2010Prop29
280
     1
102
RTVSPost2010PropOp29
 70
     1
102
RTVSPost2010Prop30
280
     1
102
RTVSPost2010PropOp30
 70
     1
102
RTVSPost2010Prop31
280
     0
102
RTVSPost2010PropOp31
 70
     1
102
RTVSPost2010Prop32
280
     0
102
RTVSPost2010PropOp32
 70
     1
102
RTVSPost2010Prop33
280
     0
102
RTVSPost2010PropOp33
 70
     1
102
RTVSPost2010Prop34
280
     0
102
RTVSPost2010PropOp34
 70
     1
102
RTVSPost2010Prop35
280
     0
102
RTVSPost2010PropOp35
 70
     1
102
RTVSPost2010Prop36
280
     0
102
RTVSPost2010PropOp36
 70
     1
102
RTVSPost2010Prop37
 90
       50
102
RTVSPost2010PropOp37
 70
     1
102
RTVSPost2010Prop38
140
0.0
102
RTVSPost2010PropOp38
 70
     1
102
RTVSPost2010Prop39
140
1.0
102
RTVSPost2010PropOp39
 70
     1
102
RTVSPost2010Prop40
 90
        0
102
RTVSPost2010PropOp40
 70
     1
102
RTVSPost2010Prop41ColorIndex
 90
       18
102
RTVSPost2010Prop41ColorRGB
 90
        0
102
RTVSPost2010PropOp41
 70
     1
102
RTVSPost2010Prop42
 90
       50
102
RTVSPost2010PropOp42
 70
     1
102
RTVSPost2010Prop43
 90
        3
102
RTVSPost2010PropOp43
 70
     1
102
RTVSPost2010Prop44ColorIndex
 90
        5
102
RTVSPost2010Prop44ColorRGB
 90
      255
102
RTVSPost2010PropOp44
 70
     1
102
RTVSPost2010Prop45
280
     0
102
RTVSPost2010PropOp45
 70
     1
102
RTVSPost2010Prop46
 90
       50
102
RTVSPost2010PropOp46
 70
     1
102
RTVSPost2010Prop47
 90
       50
102
RTVSPost2010PropOp47
 70
     1
102
RTVSPost2010Prop48
 90
       50
102
RTVSPost2010PropOp48
 70
     1
102
RTVSPost2010Prop49
280
     0
102
RTVSPost2010PropOp49
 70
     1
102
RTVSPost2010Prop50
 90
       50
102
RTVSPost2010PropOp50
 70
     1
102
RTVSPost2010Prop51ColorIndex
 90
      256
102
RTVSPost2010Prop51ColorRGB
 90
-16777216
102
RTVSPost2010PropOp51
 70
     0
102
RTVSPost2010Prop52
140
1.0
102
RTVSPost2010PropOp52
 70
     0
102
RTVSPost2010Prop53
 90
        2
102
RTVSPost2010PropOp53
 70
     1
102
RTVSPost2010Prop54
  1
strokes_ogs.tif
102
RTVSPost2010PropOp54
 70
     1
102
RTVSPost2010Prop55
280
     0
102
RTVSPost2010PropOp55
 70
     1
102
RTVSPost2010Prop56
140
1.0
102
RTVSPost2010PropOp56
 70
     1
102
RTVSPost2010Prop57
140
1.0
102
RTVSPost2010PropOp57
 70
     1
  0
XRECORD
  5
41C
102
{ACAD_REACTORS
330
41B
102
}
330
41B
100
AcDbXrecord
280
     1
102
RTVSPropertyOp0
 70
     1
102
RTVSPropertyOp1
 70
     1
102
RTVSPropertyOp2
 70
     1
102
RTVSPropertyOp3
 70
     1
102
RTVSPropertyOp4
 70
     1
102
RTVSPropertyOp5
 70
     1
102
RTVSPropertyOp6
 70
     1
102
RTVSPropertyOp7
 70
     1
102
RTVSPropertyOp8
 70
     1
102
RTVSPropertyOp9
 70
     1
102
RTVSPropertyOp10
 70
     1
102
RTVSPropertyOp11
 70
     1
102
RTVSPropertyOp12
 70
     1
102
RTVSPropertyOp13
 70
     1
102
RTVSPropertyOp14
 70
     1
102
RTVSPropertyOp15
 70
     1
102
RTVSPropertyOp16
 70
     1
102
RTVSPropertyOp17
 70
     1
102
RTVSPropertyOp18
 70
     1
102
RTVSPropertyOp19
 70
     1
102
RTVSPropertyOp20
 70
     1
102
RTVSPropertyOp21
 70
     1
102
RTVSPropertyOp22
 70
     1
102
RTVSPropertyOp23
 70
     1
102
RTVSPropertyOp24
 70
     1
102
RTVSPropertyOp25
 70
     1
102
RTVSPropertyOp26
 70
     1
102
RTVSPropertyOp27
 70
     1
102
RTVSPropertyOp28
 70
     1
102
RTVSPropertyOp29
 70
     1
102
RTVSPropertyOp30
 70
     1
102
RTVSPropertyOp31
 70
     1
102
RTVSPropertyOp32
 70
     1
102
RTVSPropertyOp33
 70
     1
102
RTVSPropertyOp34
 70
     1
102
RTVSPropertyOp35
 70
     1
102
RTVSPropertyOp36
 70
     1
102
RTVSPropertyOp37
 70
     1
102
RTVSPropertyOp38
 70
     1
102
RTVSPropertyOp39
 70
     1
102
RTVSPropertyOp40
 70
     1
102
RTVSPropertyOp41
 70
     1
102
RTVSPropertyOp42
 70
     1
102
RTVSPropertyOp43
 70
     1
102
RTVSPropertyOp44
 70
     1
102
RTVSPropertyOp45
 70
     1
102
RTVSPropertyOp46
 70
     1
102
RTVSPropertyOp47
 70
     1
102
RTVSPropertyOp48
 70
     1
102
RTVSPropertyOp49
 70
     1
102
RTVSPropertyOp50
 70
     1
102
RTVSPropertyOp51
 70
     0
102
RTVSPropertyOp52
 70
     0
102
RTVSPropertyOp53
 70
     1
102
RTVSPropertyOp54
 70
     1
102
RTVSPropertyOp55
 70
     1
102
RTVSPropertyOp56
 70
     1
102
RTVSPropertyOp57
 70
     1
102
RTVSPost2010Prop28
280
     0
102
RTVSPost2010PropOp28
 70
     1
102
RTVSPost2010Prop29
280
     1
102
RTVSPost2010PropOp29
 70
     1
102
RTVSPost2010Prop30
280
     1
102
RTVSPost2010PropOp30
 70
     1
102
RTVSPost2010Prop31
280
     0
102
RTVSPost2010PropOp31
 70
     1
102
RTVSPost2010Prop32
280
     0
102
RTVSPost2010PropOp32
 70
     1
102
RTVSPost2010Prop33
280
     0
102
RTVSPost2010PropOp33
 70
     1
102
RTVSPost2010Prop34
280
     0
102
RTVSPost2010PropOp34
 70
     1
102
RTVSPost2010Prop35
280
     0
102
RTVSPost2010PropOp35
 70
     1
102
RTVSPost2010Prop36
280
     0
102
RTVSPost2010PropOp36
 70
     1
102
RTVSPost2010Prop37
 90
       50
102
RTVSPost2010PropOp37
 70
     1
102
RTVSPost2010Prop38
140
0.0
102
RTVSPost2010PropOp38
 70
     1
102
RTVSPost2010Prop39
140
1.0
102
RTVSPost2010PropOp39
 70
     1
102
RTVSPost2010Prop40
 90
        0
102
RTVSPost2010PropOp40
 70
     1
102
RTVSPost2010Prop41ColorIndex
 90
       18
102
RTVSPost2010Prop41ColorRGB
 90
        0
102
RTVSPost2010PropOp41
 70
     1
102
RTVSPost2010Prop42
 90
       50
102
RTVSPost2010PropOp42
 70
     1
102
RTVSPost2010Prop43
 90
        3
102
RTVSPost2010PropOp43
 70
     1
102
RTVSPost2010Prop44ColorIndex
 90
        5
102
RTVSPost2010Prop44ColorRGB
 90
      255
102
RTVSPost2010PropOp44
 70
     1
102
RTVSPost2010Prop45
280
     0
102
RTVSPost2010PropOp45
 70
     1
102
RTVSPost2010Prop46
 90
       50
102
RTVSPost2010PropOp46
 70
     1
102
RTVSPost2010Prop47
 90
       50
102
RTVSPost2010PropOp47
 70
     1
102
RTVSPost2010Prop48
 90
       50
102
RTVSPost2010PropOp48
 70
     1
102
RTVSPost2010Prop49
280
     0
102
RTVSPost2010PropOp49
 70
     1
102
RTVSPost2010Prop50
 90
       50
102
RTVSPost2010PropOp50
 70
     1
102
RTVSPost2010Prop51ColorIndex
 90
      256
102
RTVSPost2010Prop51ColorRGB
 90
-16777216
102
RTVSPost2010PropOp51
 70
     0
102
RTVSPost2010Prop52
140
1.0
102
RTVSPost2010PropOp52
 70
     0
102
RTVSPost2010Prop53
 90
        2
102
RTVSPost2010PropOp53
 70
     1
102
RTVSPost2010Prop54
  1
strokes_ogs.tif
102
RTVSPost2010PropOp54
 70
     1
102
RTVSPost2010Prop55
280
     0
102
RTVSPost2010PropOp55
 70
     1
102
RTVSPost2010Prop56
140
1.0
102
RTVSPost2010PropOp56
 70
     1
102
RTVSPost2010Prop57
140
1.0
102
RTVSPost2010PropOp57
 70
     1
  0
XRECORD
  5
41E
102
{ACAD_REACTORS
330
41D
102
}
330
41D
100
AcDbXrecord
280
     1
102
RTVSPropertyOp0
 70
     1
102
RTVSPropertyOp1
 70
     1
102
RTVSPropertyOp2
 70
     1
102
RTVSPropertyOp3
 70
     1
102
RTVSPropertyOp4
 70
     1
102
RTVSPropertyOp5
 70
     1
102
RTVSPropertyOp6
 70
     1
102
RTVSPropertyOp7
 70
     1
102
RTVSPropertyOp8
 70
     1
102
RTVSPropertyOp9
 70
     1
102
RTVSPropertyOp10
 70
     1
102
RTVSPropertyOp11
 70
     1
102
RTVSPropertyOp12
 70
     1
102
RTVSPropertyOp13
 70
     1
102
RTVSPropertyOp14
 70
     1
102
RTVSPropertyOp15
 70
     1
102
RTVSPropertyOp16
 70
     1
102
RTVSPropertyOp17
 70
     1
102
RTVSPropertyOp18
 70
     1
102
RTVSPropertyOp19
 70
     1
102
RTVSPropertyOp20
 70
     1
102
RTVSPropertyOp21
 70
     1
102
RTVSPropertyOp22
 70
     1
102
RTVSPropertyOp23
 70
     1
102
RTVSPropertyOp24
 70
     1
102
RTVSPropertyOp25
 70
     1
102
RTVSPropertyOp26
 70
     1
102
RTVSPropertyOp27
 70
     1
102
RTVSPropertyOp28
 70
     1
102
RTVSPropertyOp29
 70
     1
102
RTVSPropertyOp30
 70
     1
102
RTVSPropertyOp31
 70
     1
102
RTVSPropertyOp32
 70
     1
102
RTVSPropertyOp33
 70
     1
102
RTVSPropertyOp34
 70
     1
102
RTVSPropertyOp35
 70
     1
102
RTVSPropertyOp36
 70
     1
102
RTVSPropertyOp37
 70
     1
102
RTVSPropertyOp38
 70
     1
102
RTVSPropertyOp39
 70
     1
102
RTVSPropertyOp40
 70
     1
102
RTVSPropertyOp41
 70
     1
102
RTVSPropertyOp42
 70
     1
102
RTVSPropertyOp43
 70
     1
102
RTVSPropertyOp44
 70
     1
102
RTVSPropertyOp45
 70
     1
102
RTVSPropertyOp46
 70
     1
102
RTVSPropertyOp47
 70
     1
102
RTVSPropertyOp48
 70
     1
102
RTVSPropertyOp49
 70
     1
102
RTVSPropertyOp50
 70
     1
102
RTVSPropertyOp51
 70
     0
102
RTVSPropertyOp52
 70
     0
102
RTVSPropertyOp53
 70
     1
102
RTVSPropertyOp54
 70
     1
102
RTVSPropertyOp55
 70
     1
102
RTVSPropertyOp56
 70
     1
102
RTVSPropertyOp57
 70
     1
102
RTVSPost2010Prop28
280
     0
102
RTVSPost2010PropOp28
 70
     1
102
RTVSPost2010Prop29
280
     1
102
RTVSPost2010PropOp29
 70
     1
102
RTVSPost2010Prop30
280
     1
102
RTVSPost2010PropOp30
 70
     1
102
RTVSPost2010Prop31
280
     0
102
RTVSPost2010PropOp31
 70
     1
102
RTVSPost2010Prop32
280
     0
102
RTVSPost2010PropOp32
 70
     1
102
RTVSPost2010Prop33
280
     0
102
RTVSPost2010PropOp33
 70
     1
102
RTVSPost2010Prop34
280
     0
102
RTVSPost2010PropOp34
 70
     1
102
RTVSPost2010Prop35
280
     0
102
RTVSPost2010PropOp35
 70
     1
102
RTVSPost2010Prop36
280
     0
102
RTVSPost2010PropOp36
 70
     1
102
RTVSPost2010Prop37
 90
       50
102
RTVSPost2010PropOp37
 70
     1
102
RTVSPost2010Prop38
140
0.0
102
RTVSPost2010PropOp38
 70
     1
102
RTVSPost2010Prop39
140
1.0
102
RTVSPost2010PropOp39
 70
     1
102
RTVSPost2010Prop40
 90
        0
102
RTVSPost2010PropOp40
 70
     1
102
RTVSPost2010Prop41ColorIndex
 90
       18
102
RTVSPost2010Prop41ColorRGB
 90
        0
102
RTVSPost2010PropOp41
 70
     1
102
RTVSPost2010Prop42
 90
       50
102
RTVSPost2010PropOp42
 70
     1
102
RTVSPost2010Prop43
 90
        3
102
RTVSPost2010PropOp43
 70
     1
102
RTVSPost2010Prop44ColorIndex
 90
        5
102
RTVSPost2010Prop44ColorRGB
 90
      255
102
RTVSPost2010PropOp44
 70
     1
102
RTVSPost2010Prop45
280
     0
102
RTVSPost2010PropOp45
 70
     1
102
RTVSPost2010Prop46
 90
       50
102
RTVSPost2010PropOp46
 70
     1
102
RTVSPost2010Prop47
 90
       50
102
RTVSPost2010PropOp47
 70
     1
102
RTVSPost2010Prop48
 90
       50
102
RTVSPost2010PropOp48
 70
     1
102
RTVSPost2010Prop49
280
     0
102
RTVSPost2010PropOp49
 70
     1
102
RTVSPost2010Prop50
 90
       50
102
RTVSPost2010PropOp50
 70
     1
102
RTVSPost2010Prop51ColorIndex
 90
      256
102
RTVSPost2010Prop51ColorRGB
 90
-16777216
102
RTVSPost2010PropOp51
 70
     0
102
RTVSPost2010Prop52
140
1.0
102
RTVSPost2010PropOp52
 70
     0
102
RTVSPost2010Prop53
 90
        2
102
RTVSPost2010PropOp53
 70
     1
102
RTVSPost2010Prop54
  1
strokes_ogs.tif
102
RTVSPost2010PropOp54
 70
     1
102
RTVSPost2010Prop55
280
     0
102
RTVSPost2010PropOp55
 70
     1
102
RTVSPost2010Prop56
140
1.0
102
RTVSPost2010PropOp56
 70
     1
102
RTVSPost2010Prop57
140
1.0
102
RTVSPost2010PropOp57
 70
     1
  0
XRECORD
  5
42E
102
{ACAD_REACTORS
330
42D
102
}
330
42D
100
AcDbXrecord
280
     1
102
RTVSPropertyOp0
 70
     0
102
RTVSPropertyOp1
 70
     0
102
RTVSPropertyOp2
 70
     0
102
RTVSPropertyOp3
 70
     0
102
RTVSPropertyOp4
 70
     0
102
RTVSPropertyOp5
 70
     0
102
RTVSPropertyOp6
 70
     0
102
RTVSPropertyOp7
 70
     0
102
RTVSPropertyOp8
 70
     0
102
RTVSPropertyOp9
 70
     0
102
RTVSPropertyOp10
 70
     0
102
RTVSPropertyOp11
 70
     0
102
RTVSPropertyOp12
 70
     0
102
RTVSPropertyOp13
 70
     0
102
RTVSPropertyOp14
 70
     0
102
RTVSPropertyOp15
 70
     0
102
RTVSPropertyOp16
 70
     0
102
RTVSPropertyOp17
 70
     0
102
RTVSPropertyOp18
 70
     0
102
RTVSPropertyOp19
 70
     0
102
RTVSPropertyOp20
 70
     0
102
RTVSPropertyOp21
 70
     0
102
RTVSPropertyOp22
 70
     0
102
RTVSPropertyOp23
 70
     0
102
RTVSPropertyOp24
 70
     0
102
RTVSPropertyOp25
 70
     0
102
RTVSPropertyOp26
 70
     0
102
RTVSPropertyOp27
 70
     0
102
RTVSPropertyOp28
 70
     1
102
RTVSPropertyOp29
 70
     1
102
RTVSPropertyOp30
 70
     1
102
RTVSPropertyOp31
 70
     1
102
RTVSPropertyOp32
 70
     1
102
RTVSPropertyOp33
 70
     1
102
RTVSPropertyOp34
 70
     1
102
RTVSPropertyOp35
 70
     1
102
RTVSPropertyOp36
 70
     1
102
RTVSPropertyOp37
 70
     1
102
RTVSPropertyOp38
 70
     1
102
RTVSPropertyOp39
 70
     1
102
RTVSPropertyOp40
 70
     1
102
RTVSPropertyOp41
 70
     1
102
RTVSPropertyOp42
 70
     1
102
RTVSPropertyOp43
 70
     1
102
RTVSPropertyOp44
 70
     1
102
RTVSPropertyOp45
 70
     1
102
RTVSPropertyOp46
 70
     1
102
RTVSPropertyOp47
 70
     1
102
RTVSPropertyOp48
 70
     1
102
RTVSPropertyOp49
 70
     1
102
RTVSPropertyOp50
 70
     1
102
RTVSPropertyOp51
 70
     0
102
RTVSPropertyOp52
 70
     0
102
RTVSPropertyOp53
 70
     1
102
RTVSPropertyOp54
 70
     1
102
RTVSPropertyOp55
 70
     1
102
RTVSPropertyOp56
 70
     1
102
RTVSPropertyOp57
 70
     1
102
RTVSPost2010Prop28
280
     0
102
RTVSPost2010PropOp28
 70
     1
102
RTVSPost2010Prop29
280
     1
102
RTVSPost2010PropOp29
 70
     1
102
RTVSPost2010Prop30
280
     1
102
RTVSPost2010PropOp30
 70
     1
102
RTVSPost2010Prop31
280
     0
102
RTVSPost2010PropOp31
 70
     1
102
RTVSPost2010Prop32
280
     0
102
RTVSPost2010PropOp32
 70
     1
102
RTVSPost2010Prop33
280
     0
102
RTVSPost2010PropOp33
 70
     1
102
RTVSPost2010Prop34
280
     0
102
RTVSPost2010PropOp34
 70
     1
102
RTVSPost2010Prop35
280
     0
102
RTVSPost2010PropOp35
 70
     1
102
RTVSPost2010Prop36
280
     0
102
RTVSPost2010PropOp36
 70
     1
102
RTVSPost2010Prop37
 90
       50
102
RTVSPost2010PropOp37
 70
     1
102
RTVSPost2010Prop38
140
0.0
102
RTVSPost2010PropOp38
 70
     1
102
RTVSPost2010Prop39
140
1.0
102
RTVSPost2010PropOp39
 70
     1
102
RTVSPost2010Prop40
 90
        0
102
RTVSPost2010PropOp40
 70
     1
102
RTVSPost2010Prop41ColorIndex
 90
       18
102
RTVSPost2010Prop41ColorRGB
 90
        0
102
RTVSPost2010PropOp41
 70
     1
102
RTVSPost2010Prop42
 90
       50
102
RTVSPost2010PropOp42
 70
     1
102
RTVSPost2010Prop43
 90
        3
102
RTVSPost2010PropOp43
 70
     1
102
RTVSPost2010Prop44ColorIndex
 90
        5
102
RTVSPost2010Prop44ColorRGB
 90
      255
102
RTVSPost2010PropOp44
 70
     1
102
RTVSPost2010Prop45
280
     0
102
RTVSPost2010PropOp45
 70
     1
102
RTVSPost2010Prop46
 90
       50
102
RTVSPost2010PropOp46
 70
     1
102
RTVSPost2010Prop47
 90
       50
102
RTVSPost2010PropOp47
 70
     1
102
RTVSPost2010Prop48
 90
       50
102
RTVSPost2010PropOp48
 70
     1
102
RTVSPost2010Prop49
280
     0
102
RTVSPost2010PropOp49
 70
     1
102
RTVSPost2010Prop50
 90
       50
102
RTVSPost2010PropOp50
 70
     1
102
RTVSPost2010Prop51ColorIndex
 90
      256
102
RTVSPost2010Prop51ColorRGB
 90
-16777216
102
RTVSPost2010PropOp51
 70
     0
102
RTVSPost2010Prop52
140
1.0
102
RTVSPost2010PropOp52
 70
     0
102
RTVSPost2010Prop53
 90
        2
102
RTVSPost2010PropOp53
 70
     1
102
RTVSPost2010Prop54
  1
strokes_ogs.tif
102
RTVSPost2010PropOp54
 70
     1
102
RTVSPost2010Prop55
280
     0
102
RTVSPost2010PropOp55
 70
     1
102
RTVSPost2010Prop56
140
1.0
102
RTVSPost2010PropOp56
 70
     1
102
RTVSPost2010Prop57
140
1.0
102
RTVSPost2010PropOp57
 70
     1
  0
XRECORD
  5
426
102
{ACAD_REACTORS
330
425
102
}
330
425
100
AcDbXrecord
280
     1
102
RTVSPropertyOp0
 70
     1
102
RTVSPropertyOp1
 70
     1
102
RTVSPropertyOp2
 70
     1
102
RTVSPropertyOp3
 70
     1
102
RTVSPropertyOp4
 70
     1
102
RTVSPropertyOp5
 70
     1
102
RTVSPropertyOp6
 70
     1
102
RTVSPropertyOp7
 70
     1
102
RTVSPropertyOp8
 70
     1
102
RTVSPropertyOp9
 70
     1
102
RTVSPropertyOp10
 70
     1
102
RTVSPropertyOp11
 70
     1
102
RTVSPropertyOp12
 70
     1
102
RTVSPropertyOp13
 70
     1
102
RTVSPropertyOp14
 70
     1
102
RTVSPropertyOp15
 70
     1
102
RTVSPropertyOp16
 70
     1
102
RTVSPropertyOp17
 70
     1
102
RTVSPropertyOp18
 70
     1
102
RTVSPropertyOp19
 70
     1
102
RTVSPropertyOp20
 70
     1
102
RTVSPropertyOp21
 70
     1
102
RTVSPropertyOp22
 70
     1
102
RTVSPropertyOp23
 70
     1
102
RTVSPropertyOp24
 70
     1
102
RTVSPropertyOp25
 70
     1
102
RTVSPropertyOp26
 70
     1
102
RTVSPropertyOp27
 70
     1
102
RTVSPropertyOp28
 70
     1
102
RTVSPropertyOp29
 70
     1
102
RTVSPropertyOp30
 70
     1
102
RTVSPropertyOp31
 70
     1
102
RTVSPropertyOp32
 70
     1
102
RTVSPropertyOp33
 70
     1
102
RTVSPropertyOp34
 70
     1
102
RTVSPropertyOp35
 70
     1
102
RTVSPropertyOp36
 70
     1
102
RTVSPropertyOp37
 70
     1
102
RTVSPropertyOp38
 70
     1
102
RTVSPropertyOp39
 70
     1
102
RTVSPropertyOp40
 70
     1
102
RTVSPropertyOp41
 70
     1
102
RTVSPropertyOp42
 70
     1
102
RTVSPropertyOp43
 70
     1
102
RTVSPropertyOp44
 70
     1
102
RTVSPropertyOp45
 70
     1
102
RTVSPropertyOp46
 70
     1
102
RTVSPropertyOp47
 70
     1
102
RTVSPropertyOp48
 70
     1
102
RTVSPropertyOp49
 70
     1
102
RTVSPropertyOp50
 70
     1
102
RTVSPropertyOp51
 70
     0
102
RTVSPropertyOp52
 70
     0
102
RTVSPropertyOp53
 70
     1
102
RTVSPropertyOp54
 70
     1
102
RTVSPropertyOp55
 70
     1
102
RTVSPropertyOp56
 70
     1
102
RTVSPropertyOp57
 70
     1
102
RTVSPost2010Prop28
280
     0
102
RTVSPost2010PropOp28
 70
     1
102
RTVSPost2010Prop29
280
     1
102
RTVSPost2010PropOp29
 70
     1
102
RTVSPost2010Prop30
280
     1
102
RTVSPost2010PropOp30
 70
     1
102
RTVSPost2010Prop31
280
     0
102
RTVSPost2010PropOp31
 70
     1
102
RTVSPost2010Prop32
280
     0
102
RTVSPost2010PropOp32
 70
     1
102
RTVSPost2010Prop33
280
     0
102
RTVSPost2010PropOp33
 70
     1
102
RTVSPost2010Prop34
280
     0
102
RTVSPost2010PropOp34
 70
     1
102
RTVSPost2010Prop35
280
     0
102
RTVSPost2010PropOp35
 70
     1
102
RTVSPost2010Prop36
280
     0
102
RTVSPost2010PropOp36
 70
     1
102
RTVSPost2010Prop37
 90
       50
102
RTVSPost2010PropOp37
 70
     1
102
RTVSPost2010Prop38
140
0.0
102
RTVSPost2010PropOp38
 70
     1
102
RTVSPost2010Prop39
140
1.0
102
RTVSPost2010PropOp39
 70
     1
102
RTVSPost2010Prop40
 90
        0
102
RTVSPost2010PropOp40
 70
     1
102
RTVSPost2010Prop41ColorIndex
 90
       18
102
RTVSPost2010Prop41ColorRGB
 90
        0
102
RTVSPost2010PropOp41
 70
     1
102
RTVSPost2010Prop42
 90
       50
102
RTVSPost2010PropOp42
 70
     1
102
RTVSPost2010Prop43
 90
        3
102
RTVSPost2010PropOp43
 70
     1
102
RTVSPost2010Prop44ColorIndex
 90
        5
102
RTVSPost2010Prop44ColorRGB
 90
      255
102
RTVSPost2010PropOp44
 70
     1
102
RTVSPost2010Prop45
280
     0
102
RTVSPost2010PropOp45
 70
     1
102
RTVSPost2010Prop46
 90
       50
102
RTVSPost2010PropOp46
 70
     1
102
RTVSPost2010Prop47
 90
       50
102
RTVSPost2010PropOp47
 70
     1
102
RTVSPost2010Prop48
 90
       50
102
RTVSPost2010PropOp48
 70
     1
102
RTVSPost2010Prop49
280
     0
102
RTVSPost2010PropOp49
 70
     1
102
RTVSPost2010Prop50
 90
       50
102
RTVSPost2010PropOp50
 70
     1
102
RTVSPost2010Prop51ColorIndex
 90
      256
102
RTVSPost2010Prop51ColorRGB
 90
-16777216
102
RTVSPost2010PropOp51
 70
     0
102
RTVSPost2010Prop52
140
1.0
102
RTVSPost2010PropOp52
 70
     0
102
RTVSPost2010Prop53
 90
        2
102
RTVSPost2010PropOp53
 70
     1
102
RTVSPost2010Prop54
  1
strokes_ogs.tif
102
RTVSPost2010PropOp54
 70
     1
102
RTVSPost2010Prop55
280
     0
102
RTVSPost2010PropOp55
 70
     1
102
RTVSPost2010Prop56
140
1.0
102
RTVSPost2010PropOp56
 70
     1
102
RTVSPost2010Prop57
140
1.0
102
RTVSPost2010PropOp57
 70
     1
  0
XRECORD
  5
40A
102
{ACAD_REACTORS
330
409
102
}
330
409
100
AcDbXrecord
280
     1
102
RTVSPropertyOp0
 70
     1
102
RTVSPropertyOp1
 70
     1
102
RTVSPropertyOp2
 70
     1
102
RTVSPropertyOp3
 70
     1
102
RTVSPropertyOp4
 70
     1
102
RTVSPropertyOp5
 70
     1
102
RTVSPropertyOp6
 70
     1
102
RTVSPropertyOp7
 70
     1
102
RTVSPropertyOp8
 70
     1
102
RTVSPropertyOp9
 70
     1
102
RTVSPropertyOp10
 70
     1
102
RTVSPropertyOp11
 70
     1
102
RTVSPropertyOp12
 70
     1
102
RTVSPropertyOp13
 70
     1
102
RTVSPropertyOp14
 70
     1
102
RTVSPropertyOp15
 70
     1
102
RTVSPropertyOp16
 70
     1
102
RTVSPropertyOp17
 70
     1
102
RTVSPropertyOp18
 70
     1
102
RTVSPropertyOp19
 70
     1
102
RTVSPropertyOp20
 70
     1
102
RTVSPropertyOp21
 70
     1
102
RTVSPropertyOp22
 70
     1
102
RTVSPropertyOp23
 70
     1
102
RTVSPropertyOp24
 70
     1
102
RTVSPropertyOp25
 70
     1
102
RTVSPropertyOp26
 70
     1
102
RTVSPropertyOp27
 70
     1
102
RTVSPropertyOp28
 70
     1
102
RTVSPropertyOp29
 70
     1
102
RTVSPropertyOp30
 70
     1
102
RTVSPropertyOp31
 70
     1
102
RTVSPropertyOp32
 70
     1
102
RTVSPropertyOp33
 70
     1
102
RTVSPropertyOp34
 70
     1
102
RTVSPropertyOp35
 70
     1
102
RTVSPropertyOp36
 70
     1
102
RTVSPropertyOp37
 70
     1
102
RTVSPropertyOp38
 70
     1
102
RTVSPropertyOp39
 70
     1
102
RTVSPropertyOp40
 70
     1
102
RTVSPropertyOp41
 70
     1
102
RTVSPropertyOp42
 70
     1
102
RTVSPropertyOp43
 70
     1
102
RTVSPropertyOp44
 70
     1
102
RTVSPropertyOp45
 70
     1
102
RTVSPropertyOp46
 70
     1
102
RTVSPropertyOp47
 70
     1
102
RTVSPropertyOp48
 70
     1
102
RTVSPropertyOp49
 70
     1
102
RTVSPropertyOp50
 70
     1
102
RTVSPropertyOp51
 70
     0
102
RTVSPropertyOp52
 70
     0
102
RTVSPropertyOp53
 70
     1
102
RTVSPropertyOp54
 70
     1
102
RTVSPropertyOp55
 70
     1
102
RTVSPropertyOp56
 70
     1
102
RTVSPropertyOp57
 70
     1
102
RTVSPost2010Prop28
280
     0
102
RTVSPost2010PropOp28
 70
     1
102
RTVSPost2010Prop29
280
     1
102
RTVSPost2010PropOp29
 70
     1
102
RTVSPost2010Prop30
280
     1
102
RTVSPost2010PropOp30
 70
     1
102
RTVSPost2010Prop31
280
     0
102
RTVSPost2010PropOp31
 70
     1
102
RTVSPost2010Prop32
280
     0
102
RTVSPost2010PropOp32
 70
     1
102
RTVSPost2010Prop33
280
     0
102
RTVSPost2010PropOp33
 70
     1
102
RTVSPost2010Prop34
280
     0
102
RTVSPost2010PropOp34
 70
     1
102
RTVSPost2010Prop35
280
     0
102
RTVSPost2010PropOp35
 70
     1
102
RTVSPost2010Prop36
280
     0
102
RTVSPost2010PropOp36
 70
     1
102
RTVSPost2010Prop37
 90
       50
102
RTVSPost2010PropOp37
 70
     1
102
RTVSPost2010Prop38
140
0.0
102
RTVSPost2010PropOp38
 70
     1
102
RTVSPost2010Prop39
140
1.0
102
RTVSPost2010PropOp39
 70
     1
102
RTVSPost2010Prop40
 90
        0
102
RTVSPost2010PropOp40
 70
     1
102
RTVSPost2010Prop41ColorIndex
 90
       18
102
RTVSPost2010Prop41ColorRGB
 90
        0
102
RTVSPost2010PropOp41
 70
     1
102
RTVSPost2010Prop42
 90
       50
102
RTVSPost2010PropOp42
 70
     1
102
RTVSPost2010Prop43
 90
        3
102
RTVSPost2010PropOp43
 70
     1
102
RTVSPost2010Prop44ColorIndex
 90
        5
102
RTVSPost2010Prop44ColorRGB
 90
      255
102
RTVSPost2010PropOp44
 70
     1
102
RTVSPost2010Prop45
280
     0
102
RTVSPost2010PropOp45
 70
     1
102
RTVSPost2010Prop46
 90
       50
102
RTVSPost2010PropOp46
 70
     1
102
RTVSPost2010Prop47
 90
       50
102
RTVSPost2010PropOp47
 70
     1
102
RTVSPost2010Prop48
 90
       50
102
RTVSPost2010PropOp48
 70
     1
102
RTVSPost2010Prop49
280
     0
102
RTVSPost2010PropOp49
 70
     1
102
RTVSPost2010Prop50
 90
       50
102
RTVSPost2010PropOp50
 70
     1
102
RTVSPost2010Prop51ColorIndex
 90
      256
102
RTVSPost2010Prop51ColorRGB
 90
-16777216
102
RTVSPost2010PropOp51
 70
     0
102
RTVSPost2010Prop52
140
1.0
102
RTVSPost2010PropOp52
 70
     0
102
RTVSPost2010Prop53
 90
        2
102
RTVSPost2010PropOp53
 70
     1
102
RTVSPost2010Prop54
  1
strokes_ogs.tif
102
RTVSPost2010PropOp54
 70
     1
102
RTVSPost2010Prop55
280
     0
102
RTVSPost2010PropOp55
 70
     1
102
RTVSPost2010Prop56
140
1.0
102
RTVSPost2010PropOp56
 70
     1
102
RTVSPost2010Prop57
140
1.0
102
RTVSPost2010PropOp57
 70
     1
  0
XRECORD
  5
40C
102
{ACAD_REACTORS
330
40B
102
}
330
40B
100
AcDbXrecord
280
     1
102
RTVSPropertyOp0
 70
     1
102
RTVSPropertyOp1
 70
     1
102
RTVSPropertyOp2
 70
     1
102
RTVSPropertyOp3
 70
     1
102
RTVSPropertyOp4
 70
     1
102
RTVSPropertyOp5
 70
     1
102
RTVSPropertyOp6
 70
     1
102
RTVSPropertyOp7
 70
     1
102
RTVSPropertyOp8
 70
     1
102
RTVSPropertyOp9
 70
     1
102
RTVSPropertyOp10
 70
     1
102
RTVSPropertyOp11
 70
     1
102
RTVSPropertyOp12
 70
     1
102
RTVSPropertyOp13
 70
     1
102
RTVSPropertyOp14
 70
     1
102
RTVSPropertyOp15
 70
     1
102
RTVSPropertyOp16
 70
     1
102
RTVSPropertyOp17
 70
     1
102
RTVSPropertyOp18
 70
     1
102
RTVSPropertyOp19
 70
     1
102
RTVSPropertyOp20
 70
     1
102
RTVSPropertyOp21
 70
     1
102
RTVSPropertyOp22
 70
     1
102
RTVSPropertyOp23
 70
     1
102
RTVSPropertyOp24
 70
     1
102
RTVSPropertyOp25
 70
     1
102
RTVSPropertyOp26
 70
     1
102
RTVSPropertyOp27
 70
     1
102
RTVSPropertyOp28
 70
     1
102
RTVSPropertyOp29
 70
     1
102
RTVSPropertyOp30
 70
     1
102
RTVSPropertyOp31
 70
     1
102
RTVSPropertyOp32
 70
     1
102
RTVSPropertyOp33
 70
     1
102
RTVSPropertyOp34
 70
     1
102
RTVSPropertyOp35
 70
     1
102
RTVSPropertyOp36
 70
     1
102
RTVSPropertyOp37
 70
     1
102
RTVSPropertyOp38
 70
     1
102
RTVSPropertyOp39
 70
     1
102
RTVSPropertyOp40
 70
     1
102
RTVSPropertyOp41
 70
     1
102
RTVSPropertyOp42
 70
     1
102
RTVSPropertyOp43
 70
     1
102
RTVSPropertyOp44
 70
     1
102
RTVSPropertyOp45
 70
     1
102
RTVSPropertyOp46
 70
     1
102
RTVSPropertyOp47
 70
     1
102
RTVSPropertyOp48
 70
     1
102
RTVSPropertyOp49
 70
     1
102
RTVSPropertyOp50
 70
     1
102
RTVSPropertyOp51
 70
     0
102
RTVSPropertyOp52
 70
     0
102
RTVSPropertyOp53
 70
     1
102
RTVSPropertyOp54
 70
     1
102
RTVSPropertyOp55
 70
     1
102
RTVSPropertyOp56
 70
     1
102
RTVSPropertyOp57
 70
     1
102
RTVSPost2010Prop28
280
     0
102
RTVSPost2010PropOp28
 70
     1
102
RTVSPost2010Prop29
280
     1
102
RTVSPost2010PropOp29
 70
     1
102
RTVSPost2010Prop30
280
     1
102
RTVSPost2010PropOp30
 70
     1
102
RTVSPost2010Prop31
280
     0
102
RTVSPost2010PropOp31
 70
     1
102
RTVSPost2010Prop32
280
     0
102
RTVSPost2010PropOp32
 70
     1
102
RTVSPost2010Prop33
280
     0
102
RTVSPost2010PropOp33
 70
     1
102
RTVSPost2010Prop34
280
     0
102
RTVSPost2010PropOp34
 70
     1
102
RTVSPost2010Prop35
280
     0
102
RTVSPost2010PropOp35
 70
     1
102
RTVSPost2010Prop36
280
     0
102
RTVSPost2010PropOp36
 70
     1
102
RTVSPost2010Prop37
 90
       50
102
RTVSPost2010PropOp37
 70
     1
102
RTVSPost2010Prop38
140
0.0
102
RTVSPost2010PropOp38
 70
     1
102
RTVSPost2010Prop39
140
1.0
102
RTVSPost2010PropOp39
 70
     1
102
RTVSPost2010Prop40
 90
        0
102
RTVSPost2010PropOp40
 70
     1
102
RTVSPost2010Prop41ColorIndex
 90
       18
102
RTVSPost2010Prop41ColorRGB
 90
        0
102
RTVSPost2010PropOp41
 70
     1
102
RTVSPost2010Prop42
 90
       50
102
RTVSPost2010PropOp42
 70
     1
102
RTVSPost2010Prop43
 90
        3
102
RTVSPost2010PropOp43
 70
     1
102
RTVSPost2010Prop44ColorIndex
 90
        5
102
RTVSPost2010Prop44ColorRGB
 90
      255
102
RTVSPost2010PropOp44
 70
     1
102
RTVSPost2010Prop45
280
     0
102
RTVSPost2010PropOp45
 70
     1
102
RTVSPost2010Prop46
 90
       50
102
RTVSPost2010PropOp46
 70
     1
102
RTVSPost2010Prop47
 90
       50
102
RTVSPost2010PropOp47
 70
     1
102
RTVSPost2010Prop48
 90
       50
102
RTVSPost2010PropOp48
 70
     1
102
RTVSPost2010Prop49
280
     0
102
RTVSPost2010PropOp49
 70
     1
102
RTVSPost2010Prop50
 90
       50
102
RTVSPost2010PropOp50
 70
     1
102
RTVSPost2010Prop51ColorIndex
 90
      256
102
RTVSPost2010Prop51ColorRGB
 90
-16777216
102
RTVSPost2010PropOp51
 70
     0
102
RTVSPost2010Prop52
140
1.0
102
RTVSPost2010PropOp52
 70
     0
102
RTVSPost2010Prop53
 90
        2
102
RTVSPost2010PropOp53
 70
     1
102
RTVSPost2010Prop54
  1
strokes_ogs.tif
102
RTVSPost2010PropOp54
 70
     1
102
RTVSPost2010Prop55
280
     0
102
RTVSPost2010PropOp55
 70
     1
102
RTVSPost2010Prop56
140
1.0
102
RTVSPost2010PropOp56
 70
     1
102
RTVSPost2010Prop57
140
1.0
102
RTVSPost2010PropOp57
 70
     1
  0
XRECORD
  5
40E
102
{ACAD_REACTORS
330
40D
102
}
330
40D
100
AcDbXrecord
280
     1
102
RTVSPropertyOp0
 70
     1
102
RTVSPropertyOp1
 70
     1
102
RTVSPropertyOp2
 70
     1
102
RTVSPropertyOp3
 70
     1
102
RTVSPropertyOp4
 70
     1
102
RTVSPropertyOp5
 70
     1
102
RTVSPropertyOp6
 70
     1
102
RTVSPropertyOp7
 70
     1
102
RTVSPropertyOp8
 70
     1
102
RTVSPropertyOp9
 70
     1
102
RTVSPropertyOp10
 70
     1
102
RTVSPropertyOp11
 70
     1
102
RTVSPropertyOp12
 70
     1
102
RTVSPropertyOp13
 70
     1
102
RTVSPropertyOp14
 70
     1
102
RTVSPropertyOp15
 70
     1
102
RTVSPropertyOp16
 70
     1
102
RTVSPropertyOp17
 70
     1
102
RTVSPropertyOp18
 70
     1
102
RTVSPropertyOp19
 70
     1
102
RTVSPropertyOp20
 70
     1
102
RTVSPropertyOp21
 70
     1
102
RTVSPropertyOp22
 70
     1
102
RTVSPropertyOp23
 70
     1
102
RTVSPropertyOp24
 70
     1
102
RTVSPropertyOp25
 70
     1
102
RTVSPropertyOp26
 70
     1
102
RTVSPropertyOp27
 70
     1
102
RTVSPropertyOp28
 70
     1
102
RTVSPropertyOp29
 70
     1
102
RTVSPropertyOp30
 70
     1
102
RTVSPropertyOp31
 70
     1
102
RTVSPropertyOp32
 70
     1
102
RTVSPropertyOp33
 70
     1
102
RTVSPropertyOp34
 70
     1
102
RTVSPropertyOp35
 70
     1
102
RTVSPropertyOp36
 70
     1
102
RTVSPropertyOp37
 70
     1
102
RTVSPropertyOp38
 70
     1
102
RTVSPropertyOp39
 70
     1
102
RTVSPropertyOp40
 70
     1
102
RTVSPropertyOp41
 70
     1
102
RTVSPropertyOp42
 70
     1
102
RTVSPropertyOp43
 70
     1
102
RTVSPropertyOp44
 70
     1
102
RTVSPropertyOp45
 70
     1
102
RTVSPropertyOp46
 70
     1
102
RTVSPropertyOp47
 70
     1
102
RTVSPropertyOp48
 70
     1
102
RTVSPropertyOp49
 70
     1
102
RTVSPropertyOp50
 70
     1
102
RTVSPropertyOp51
 70
     0
102
RTVSPropertyOp52
 70
     0
102
RTVSPropertyOp53
 70
     1
102
RTVSPropertyOp54
 70
     1
102
RTVSPropertyOp55
 70
     1
102
RTVSPropertyOp56
 70
     1
102
RTVSPropertyOp57
 70
     1
102
RTVSPost2010Prop28
280
     0
102
RTVSPost2010PropOp28
 70
     1
102
RTVSPost2010Prop29
280
     1
102
RTVSPost2010PropOp29
 70
     1
102
RTVSPost2010Prop30
280
     1
102
RTVSPost2010PropOp30
 70
     1
102
RTVSPost2010Prop31
280
     0
102
RTVSPost2010PropOp31
 70
     1
102
RTVSPost2010Prop32
280
     0
102
RTVSPost2010PropOp32
 70
     1
102
RTVSPost2010Prop33
280
     0
102
RTVSPost2010PropOp33
 70
     1
102
RTVSPost2010Prop34
280
     0
102
RTVSPost2010PropOp34
 70
     1
102
RTVSPost2010Prop35
280
     0
102
RTVSPost2010PropOp35
 70
     1
102
RTVSPost2010Prop36
280
     0
102
RTVSPost2010PropOp36
 70
     1
102
RTVSPost2010Prop37
 90
       50
102
RTVSPost2010PropOp37
 70
     1
102
RTVSPost2010Prop38
140
0.0
102
RTVSPost2010PropOp38
 70
     1
102
RTVSPost2010Prop39
140
1.0
102
RTVSPost2010PropOp39
 70
     1
102
RTVSPost2010Prop40
 90
        0
102
RTVSPost2010PropOp40
 70
     1
102
RTVSPost2010Prop41ColorIndex
 90
       18
102
RTVSPost2010Prop41ColorRGB
 90
        0
102
RTVSPost2010PropOp41
 70
     1
102
RTVSPost2010Prop42
 90
       50
102
RTVSPost2010PropOp42
 70
     1
102
RTVSPost2010Prop43
 90
        3
102
RTVSPost2010PropOp43
 70
     1
102
RTVSPost2010Prop44ColorIndex
 90
        5
102
RTVSPost2010Prop44ColorRGB
 90
      255
102
RTVSPost2010PropOp44
 70
     1
102
RTVSPost2010Prop45
280
     0
102
RTVSPost2010PropOp45
 70
     1
102
RTVSPost2010Prop46
 90
       50
102
RTVSPost2010PropOp46
 70
     1
102
RTVSPost2010Prop47
 90
       50
102
RTVSPost2010PropOp47
 70
     1
102
RTVSPost2010Prop48
 90
       50
102
RTVSPost2010PropOp48
 70
     1
102
RTVSPost2010Prop49
280
     0
102
RTVSPost2010PropOp49
 70
     1
102
RTVSPost2010Prop50
 90
       50
102
RTVSPost2010PropOp50
 70
     1
102
RTVSPost2010Prop51ColorIndex
 90
      256
102
RTVSPost2010Prop51ColorRGB
 90
-16777216
102
RTVSPost2010PropOp51
 70
     0
102
RTVSPost2010Prop52
140
1.0
102
RTVSPost2010PropOp52
 70
     0
102
RTVSPost2010Prop53
 90
        2
102
RTVSPost2010PropOp53
 70
     1
102
RTVSPost2010Prop54
  1
strokes_ogs.tif
102
RTVSPost2010PropOp54
 70
     1
102
RTVSPost2010Prop55
280
     0
102
RTVSPost2010PropOp55
 70
     1
102
RTVSPost2010Prop56
140
1.0
102
RTVSPost2010PropOp56
 70
     1
102
RTVSPost2010Prop57
140
1.0
102
RTVSPost2010PropOp57
 70
     1
  0
XRECORD
  5
410
102
{ACAD_REACTORS
330
40F
102
}
330
40F
100
AcDbXrecord
280
     1
102
RTVSPropertyOp0
 70
     1
102
RTVSPropertyOp1
 70
     1
102
RTVSPropertyOp2
 70
     1
102
RTVSPropertyOp3
 70
     1
102
RTVSPropertyOp4
 70
     1
102
RTVSPropertyOp5
 70
     1
102
RTVSPropertyOp6
 70
     1
102
RTVSPropertyOp7
 70
     1
102
RTVSPropertyOp8
 70
     1
102
RTVSPropertyOp9
 70
     1
102
RTVSPropertyOp10
 70
     1
102
RTVSPropertyOp11
 70
     1
102
RTVSPropertyOp12
 70
     1
102
RTVSPropertyOp13
 70
     1
102
RTVSPropertyOp14
 70
     1
102
RTVSPropertyOp15
 70
     1
102
RTVSPropertyOp16
 70
     1
102
RTVSPropertyOp17
 70
     1
102
RTVSPropertyOp18
 70
     1
102
RTVSPropertyOp19
 70
     1
102
RTVSPropertyOp20
 70
     1
102
RTVSPropertyOp21
 70
     1
102
RTVSPropertyOp22
 70
     1
102
RTVSPropertyOp23
 70
     1
102
RTVSPropertyOp24
 70
     1
102
RTVSPropertyOp25
 70
     1
102
RTVSPropertyOp26
 70
     1
102
RTVSPropertyOp27
 70
     1
102
RTVSPropertyOp28
 70
     1
102
RTVSPropertyOp29
 70
     1
102
RTVSPropertyOp30
 70
     1
102
RTVSPropertyOp31
 70
     1
102
RTVSPropertyOp32
 70
     1
102
RTVSPropertyOp33
 70
     1
102
RTVSPropertyOp34
 70
     1
102
RTVSPropertyOp35
 70
     1
102
RTVSPropertyOp36
 70
     1
102
RTVSPropertyOp37
 70
     1
102
RTVSPropertyOp38
 70
     1
102
RTVSPropertyOp39
 70
     1
102
RTVSPropertyOp40
 70
     1
102
RTVSPropertyOp41
 70
     1
102
RTVSPropertyOp42
 70
     1
102
RTVSPropertyOp43
 70
     1
102
RTVSPropertyOp44
 70
     1
102
RTVSPropertyOp45
 70
     1
102
RTVSPropertyOp46
 70
     1
102
RTVSPropertyOp47
 70
     1
102
RTVSPropertyOp48
 70
     1
102
RTVSPropertyOp49
 70
     1
102
RTVSPropertyOp50
 70
     1
102
RTVSPropertyOp51
 70
     0
102
RTVSPropertyOp52
 70
     0
102
RTVSPropertyOp53
 70
     1
102
RTVSPropertyOp54
 70
     1
102
RTVSPropertyOp55
 70
     1
102
RTVSPropertyOp56
 70
     1
102
RTVSPropertyOp57
 70
     1
102
RTVSPost2010Prop28
280
     0
102
RTVSPost2010PropOp28
 70
     1
102
RTVSPost2010Prop29
280
     1
102
RTVSPost2010PropOp29
 70
     1
102
RTVSPost2010Prop30
280
     1
102
RTVSPost2010PropOp30
 70
     1
102
RTVSPost2010Prop31
280
     0
102
RTVSPost2010PropOp31
 70
     1
102
RTVSPost2010Prop32
280
     0
102
RTVSPost2010PropOp32
 70
     1
102
RTVSPost2010Prop33
280
     0
102
RTVSPost2010PropOp33
 70
     1
102
RTVSPost2010Prop34
280
     0
102
RTVSPost2010PropOp34
 70
     1
102
RTVSPost2010Prop35
280
     0
102
RTVSPost2010PropOp35
 70
     1
102
RTVSPost2010Prop36
280
     0
102
RTVSPost2010PropOp36
 70
     1
102
RTVSPost2010Prop37
 90
       50
102
RTVSPost2010PropOp37
 70
     1
102
RTVSPost2010Prop38
140
0.0
102
RTVSPost2010PropOp38
 70
     1
102
RTVSPost2010Prop39
140
1.0
102
RTVSPost2010PropOp39
 70
     1
102
RTVSPost2010Prop40
 90
        0
102
RTVSPost2010PropOp40
 70
     1
102
RTVSPost2010Prop41ColorIndex
 90
       18
102
RTVSPost2010Prop41ColorRGB
 90
        0
102
RTVSPost2010PropOp41
 70
     1
102
RTVSPost2010Prop42
 90
       50
102
RTVSPost2010PropOp42
 70
     1
102
RTVSPost2010Prop43
 90
        3
102
RTVSPost2010PropOp43
 70
     1
102
RTVSPost2010Prop44ColorIndex
 90
        5
102
RTVSPost2010Prop44ColorRGB
 90
      255
102
RTVSPost2010PropOp44
 70
     1
102
RTVSPost2010Prop45
280
     0
102
RTVSPost2010PropOp45
 70
     1
102
RTVSPost2010Prop46
 90
       50
102
RTVSPost2010PropOp46
 70
     1
102
RTVSPost2010Prop47
 90
       50
102
RTVSPost2010PropOp47
 70
     1
102
RTVSPost2010Prop48
 90
       50
102
RTVSPost2010PropOp48
 70
     1
102
RTVSPost2010Prop49
280
     0
102
RTVSPost2010PropOp49
 70
     1
102
RTVSPost2010Prop50
 90
       50
102
RTVSPost2010PropOp50
 70
     1
102
RTVSPost2010Prop51ColorIndex
 90
      256
102
RTVSPost2010Prop51ColorRGB
 90
-16777216
102
RTVSPost2010PropOp51
 70
     0
102
RTVSPost2010Prop52
140
1.0
102
RTVSPost2010PropOp52
 70
     0
102
RTVSPost2010Prop53
 90
        2
102
RTVSPost2010PropOp53
 70
     1
102
RTVSPost2010Prop54
  1
strokes_ogs.tif
102
RTVSPost2010PropOp54
 70
     1
102
RTVSPost2010Prop55
280
     0
102
RTVSPost2010PropOp55
 70
     1
102
RTVSPost2010Prop56
140
1.0
102
RTVSPost2010PropOp56
 70
     1
102
RTVSPost2010Prop57
140
1.0
102
RTVSPost2010PropOp57
 70
     1
  0
XRECORD
  5
416
102
{ACAD_REACTORS
330
415
102
}
330
415
100
AcDbXrecord
280
     1
102
RTVSPropertyOp0
 70
     1
102
RTVSPropertyOp1
 70
     1
102
RTVSPropertyOp2
 70
     1
102
RTVSPropertyOp3
 70
     1
102
RTVSPropertyOp4
 70
     1
102
RTVSPropertyOp5
 70
     1
102
RTVSPropertyOp6
 70
     1
102
RTVSPropertyOp7
 70
     1
102
RTVSPropertyOp8
 70
     1
102
RTVSPropertyOp9
 70
     1
102
RTVSPropertyOp10
 70
     1
102
RTVSPropertyOp11
 70
     1
102
RTVSPropertyOp12
 70
     1
102
RTVSPropertyOp13
 70
     1
102
RTVSPropertyOp14
 70
     1
102
RTVSPropertyOp15
 70
     1
102
RTVSPropertyOp16
 70
     1
102
RTVSPropertyOp17
 70
     1
102
RTVSPropertyOp18
 70
     1
102
RTVSPropertyOp19
 70
     1
102
RTVSPropertyOp20
 70
     1
102
RTVSPropertyOp21
 70
     1
102
RTVSPropertyOp22
 70
     1
102
RTVSPropertyOp23
 70
     1
102
RTVSPropertyOp24
 70
     1
102
RTVSPropertyOp25
 70
     1
102
RTVSPropertyOp26
 70
     1
102
RTVSPropertyOp27
 70
     1
102
RTVSPropertyOp28
 70
     1
102
RTVSPropertyOp29
 70
     1
102
RTVSPropertyOp30
 70
     1
102
RTVSPropertyOp31
 70
     1
102
RTVSPropertyOp32
 70
     1
102
RTVSPropertyOp33
 70
     1
102
RTVSPropertyOp34
 70
     1
102
RTVSPropertyOp35
 70
     1
102
RTVSPropertyOp36
 70
     1
102
RTVSPropertyOp37
 70
     1
102
RTVSPropertyOp38
 70
     1
102
RTVSPropertyOp39
 70
     1
102
RTVSPropertyOp40
 70
     1
102
RTVSPropertyOp41
 70
     1
102
RTVSPropertyOp42
 70
     1
102
RTVSPropertyOp43
 70
     1
102
RTVSPropertyOp44
 70
     1
102
RTVSPropertyOp45
 70
     1
102
RTVSPropertyOp46
 70
     1
102
RTVSPropertyOp47
 70
     1
102
RTVSPropertyOp48
 70
     1
102
RTVSPropertyOp49
 70
     1
102
RTVSPropertyOp50
 70
     1
102
RTVSPropertyOp51
 70
     0
102
RTVSPropertyOp52
 70
     0
102
RTVSPropertyOp53
 70
     1
102
RTVSPropertyOp54
 70
     1
102
RTVSPropertyOp55
 70
     1
102
RTVSPropertyOp56
 70
     1
102
RTVSPropertyOp57
 70
     1
102
RTVSPost2010Prop28
280
     0
102
RTVSPost2010PropOp28
 70
     1
102
RTVSPost2010Prop29
280
     1
102
RTVSPost2010PropOp29
 70
     1
102
RTVSPost2010Prop30
280
     1
102
RTVSPost2010PropOp30
 70
     1
102
RTVSPost2010Prop31
280
     0
102
RTVSPost2010PropOp31
 70
     1
102
RTVSPost2010Prop32
280
     0
102
RTVSPost2010PropOp32
 70
     1
102
RTVSPost2010Prop33
280
     0
102
RTVSPost2010PropOp33
 70
     1
102
RTVSPost2010Prop34
280
     0
102
RTVSPost2010PropOp34
 70
     1
102
RTVSPost2010Prop35
280
     0
102
RTVSPost2010PropOp35
 70
     1
102
RTVSPost2010Prop36
280
     0
102
RTVSPost2010PropOp36
 70
     1
102
RTVSPost2010Prop37
 90
       50
102
RTVSPost2010PropOp37
 70
     1
102
RTVSPost2010Prop38
140
0.0
102
RTVSPost2010PropOp38
 70
     1
102
RTVSPost2010Prop39
140
1.0
102
RTVSPost2010PropOp39
 70
     1
102
RTVSPost2010Prop40
 90
        0
102
RTVSPost2010PropOp40
 70
     1
102
RTVSPost2010Prop41ColorIndex
 90
       18
102
RTVSPost2010Prop41ColorRGB
 90
        0
102
RTVSPost2010PropOp41
 70
     1
102
RTVSPost2010Prop42
 90
       50
102
RTVSPost2010PropOp42
 70
     1
102
RTVSPost2010Prop43
 90
        3
102
RTVSPost2010PropOp43
 70
     1
102
RTVSPost2010Prop44ColorIndex
 90
        5
102
RTVSPost2010Prop44ColorRGB
 90
      255
102
RTVSPost2010PropOp44
 70
     1
102
RTVSPost2010Prop45
280
     0
102
RTVSPost2010PropOp45
 70
     1
102
RTVSPost2010Prop46
 90
       50
102
RTVSPost2010PropOp46
 70
     1
102
RTVSPost2010Prop47
 90
       50
102
RTVSPost2010PropOp47
 70
     1
102
RTVSPost2010Prop48
 90
       50
102
RTVSPost2010PropOp48
 70
     1
102
RTVSPost2010Prop49
280
     0
102
RTVSPost2010PropOp49
 70
     1
102
RTVSPost2010Prop50
 90
       50
102
RTVSPost2010PropOp50
 70
     1
102
RTVSPost2010Prop51ColorIndex
 90
      256
102
RTVSPost2010Prop51ColorRGB
 90
-16777216
102
RTVSPost2010PropOp51
 70
     0
102
RTVSPost2010Prop52
140
1.0
102
RTVSPost2010PropOp52
 70
     0
102
RTVSPost2010Prop53
 90
        2
102
RTVSPost2010PropOp53
 70
     1
102
RTVSPost2010Prop54
  1
strokes_ogs.tif
102
RTVSPost2010PropOp54
 70
     1
102
RTVSPost2010Prop55
280
     0
102
RTVSPost2010PropOp55
 70
     1
102
RTVSPost2010Prop56
140
1.0
102
RTVSPost2010PropOp56
 70
     1
102
RTVSPost2010Prop57
140
1.0
102
RTVSPost2010PropOp57
 70
     1
  0
XRECORD
  5
42A
102
{ACAD_REACTORS
330
429
102
}
330
429
100
AcDbXrecord
280
     1
102
RTVSPropertyOp0
 70
     0
102
RTVSPropertyOp1
 70
     0
102
RTVSPropertyOp2
 70
     0
102
RTVSPropertyOp3
 70
     0
102
RTVSPropertyOp4
 70
     0
102
RTVSPropertyOp5
 70
     0
102
RTVSPropertyOp6
 70
     0
102
RTVSPropertyOp7
 70
     0
102
RTVSPropertyOp8
 70
     0
102
RTVSPropertyOp9
 70
     0
102
RTVSPropertyOp10
 70
     0
102
RTVSPropertyOp11
 70
     0
102
RTVSPropertyOp12
 70
     0
102
RTVSPropertyOp13
 70
     0
102
RTVSPropertyOp14
 70
     0
102
RTVSPropertyOp15
 70
     0
102
RTVSPropertyOp16
 70
     0
102
RTVSPropertyOp17
 70
     0
102
RTVSPropertyOp18
 70
     0
102
RTVSPropertyOp19
 70
     0
102
RTVSPropertyOp20
 70
     0
102
RTVSPropertyOp21
 70
     0
102
RTVSPropertyOp22
 70
     0
102
RTVSPropertyOp23
 70
     0
102
RTVSPropertyOp24
 70
     0
102
RTVSPropertyOp25
 70
     0
102
RTVSPropertyOp26
 70
     0
102
RTVSPropertyOp27
 70
     0
102
RTVSPropertyOp28
 70
     1
102
RTVSPropertyOp29
 70
     1
102
RTVSPropertyOp30
 70
     1
102
RTVSPropertyOp31
 70
     1
102
RTVSPropertyOp32
 70
     1
102
RTVSPropertyOp33
 70
     1
102
RTVSPropertyOp34
 70
     1
102
RTVSPropertyOp35
 70
     1
102
RTVSPropertyOp36
 70
     1
102
RTVSPropertyOp37
 70
     1
102
RTVSPropertyOp38
 70
     1
102
RTVSPropertyOp39
 70
     1
102
RTVSPropertyOp40
 70
     1
102
RTVSPropertyOp41
 70
     1
102
RTVSPropertyOp42
 70
     1
102
RTVSPropertyOp43
 70
     1
102
RTVSPropertyOp44
 70
     1
102
RTVSPropertyOp45
 70
     1
102
RTVSPropertyOp46
 70
     1
102
RTVSPropertyOp47
 70
     1
102
RTVSPropertyOp48
 70
     1
102
RTVSPropertyOp49
 70
     1
102
RTVSPropertyOp50
 70
     1
102
RTVSPropertyOp51
 70
     0
102
RTVSPropertyOp52
 70
     0
102
RTVSPropertyOp53
 70
     1
102
RTVSPropertyOp54
 70
     1
102
RTVSPropertyOp55
 70
     1
102
RTVSPropertyOp56
 70
     1
102
RTVSPropertyOp57
 70
     1
102
RTVSPost2010Prop28
280
     0
102
RTVSPost2010PropOp28
 70
     1
102
RTVSPost2010Prop29
280
     1
102
RTVSPost2010PropOp29
 70
     1
102
RTVSPost2010Prop30
280
     1
102
RTVSPost2010PropOp30
 70
     1
102
RTVSPost2010Prop31
280
     0
102
RTVSPost2010PropOp31
 70
     1
102
RTVSPost2010Prop32
280
     0
102
RTVSPost2010PropOp32
 70
     1
102
RTVSPost2010Prop33
280
     0
102
RTVSPost2010PropOp33
 70
     1
102
RTVSPost2010Prop34
280
     0
102
RTVSPost2010PropOp34
 70
     1
102
RTVSPost2010Prop35
280
     0
102
RTVSPost2010PropOp35
 70
     1
102
RTVSPost2010Prop36
280
     0
102
RTVSPost2010PropOp36
 70
     1
102
RTVSPost2010Prop37
 90
       50
102
RTVSPost2010PropOp37
 70
     1
102
RTVSPost2010Prop38
140
0.0
102
RTVSPost2010PropOp38
 70
     1
102
RTVSPost2010Prop39
140
1.0
102
RTVSPost2010PropOp39
 70
     1
102
RTVSPost2010Prop40
 90
        0
102
RTVSPost2010PropOp40
 70
     1
102
RTVSPost2010Prop41ColorIndex
 90
       18
102
RTVSPost2010Prop41ColorRGB
 90
        0
102
RTVSPost2010PropOp41
 70
     1
102
RTVSPost2010Prop42
 90
       50
102
RTVSPost2010PropOp42
 70
     1
102
RTVSPost2010Prop43
 90
        3
102
RTVSPost2010PropOp43
 70
     1
102
RTVSPost2010Prop44ColorIndex
 90
        5
102
RTVSPost2010Prop44ColorRGB
 90
      255
102
RTVSPost2010PropOp44
 70
     1
102
RTVSPost2010Prop45
280
     0
102
RTVSPost2010PropOp45
 70
     1
102
RTVSPost2010Prop46
 90
       50
102
RTVSPost2010PropOp46
 70
     1
102
RTVSPost2010Prop47
 90
       50
102
RTVSPost2010PropOp47
 70
     1
102
RTVSPost2010Prop48
 90
       50
102
RTVSPost2010PropOp48
 70
     1
102
RTVSPost2010Prop49
280
     0
102
RTVSPost2010PropOp49
 70
     1
102
RTVSPost2010Prop50
 90
       50
102
RTVSPost2010PropOp50
 70
     1
102
RTVSPost2010Prop51ColorIndex
 90
      256
102
RTVSPost2010Prop51ColorRGB
 90
-16777216
102
RTVSPost2010PropOp51
 70
     0
102
RTVSPost2010Prop52
140
1.0
102
RTVSPost2010PropOp52
 70
     0
102
RTVSPost2010Prop53
 90
        2
102
RTVSPost2010PropOp53
 70
     1
102
RTVSPost2010Prop54
  1
strokes_ogs.tif
102
RTVSPost2010PropOp54
 70
     1
102
RTVSPost2010Prop55
280
     0
102
RTVSPost2010PropOp55
 70
     1
102
RTVSPost2010Prop56
140
1.0
102
RTVSPost2010PropOp56
 70
     1
102
RTVSPost2010Prop57
140
1.0
102
RTVSPost2010PropOp57
 70
     1
  0
XRECORD
  5
424
102
{ACAD_REACTORS
330
423
102
}
330
423
100
AcDbXrecord
280
     1
102
RTVSPropertyOp0
 70
     1
102
RTVSPropertyOp1
 70
     1
102
RTVSPropertyOp2
 70
     1
102
RTVSPropertyOp3
 70
     1
102
RTVSPropertyOp4
 70
     1
102
RTVSPropertyOp5
 70
     1
102
RTVSPropertyOp6
 70
     1
102
RTVSPropertyOp7
 70
     1
102
RTVSPropertyOp8
 70
     1
102
RTVSPropertyOp9
 70
     1
102
RTVSPropertyOp10
 70
     1
102
RTVSPropertyOp11
 70
     1
102
RTVSPropertyOp12
 70
     1
102
RTVSPropertyOp13
 70
     1
102
RTVSPropertyOp14
 70
     1
102
RTVSPropertyOp15
 70
     1
102
RTVSPropertyOp16
 70
     1
102
RTVSPropertyOp17
 70
     1
102
RTVSPropertyOp18
 70
     1
102
RTVSPropertyOp19
 70
     1
102
RTVSPropertyOp20
 70
     1
102
RTVSPropertyOp21
 70
     1
102
RTVSPropertyOp22
 70
     1
102
RTVSPropertyOp23
 70
     1
102
RTVSPropertyOp24
 70
     1
102
RTVSPropertyOp25
 70
     1
102
RTVSPropertyOp26
 70
     1
102
RTVSPropertyOp27
 70
     1
102
RTVSPropertyOp28
 70
     1
102
RTVSPropertyOp29
 70
     1
102
RTVSPropertyOp30
 70
     1
102
RTVSPropertyOp31
 70
     1
102
RTVSPropertyOp32
 70
     1
102
RTVSPropertyOp33
 70
     1
102
RTVSPropertyOp34
 70
     1
102
RTVSPropertyOp35
 70
     1
102
RTVSPropertyOp36
 70
     1
102
RTVSPropertyOp37
 70
     1
102
RTVSPropertyOp38
 70
     1
102
RTVSPropertyOp39
 70
     1
102
RTVSPropertyOp40
 70
     1
102
RTVSPropertyOp41
 70
     1
102
RTVSPropertyOp42
 70
     1
102
RTVSPropertyOp43
 70
     1
102
RTVSPropertyOp44
 70
     1
102
RTVSPropertyOp45
 70
     1
102
RTVSPropertyOp46
 70
     1
102
RTVSPropertyOp47
 70
     1
102
RTVSPropertyOp48
 70
     1
102
RTVSPropertyOp49
 70
     1
102
RTVSPropertyOp50
 70
     1
102
RTVSPropertyOp51
 70
     0
102
RTVSPropertyOp52
 70
     0
102
RTVSPropertyOp53
 70
     1
102
RTVSPropertyOp54
 70
     1
102
RTVSPropertyOp55
 70
     1
102
RTVSPropertyOp56
 70
     1
102
RTVSPropertyOp57
 70
     1
102
RTVSPost2010Prop28
280
     0
102
RTVSPost2010PropOp28
 70
     1
102
RTVSPost2010Prop29
280
     1
102
RTVSPost2010PropOp29
 70
     1
102
RTVSPost2010Prop30
280
     1
102
RTVSPost2010PropOp30
 70
     1
102
RTVSPost2010Prop31
280
     0
102
RTVSPost2010PropOp31
 70
     1
102
RTVSPost2010Prop32
280
     0
102
RTVSPost2010PropOp32
 70
     1
102
RTVSPost2010Prop33
280
     0
102
RTVSPost2010PropOp33
 70
     1
102
RTVSPost2010Prop34
280
     0
102
RTVSPost2010PropOp34
 70
     1
102
RTVSPost2010Prop35
280
     0
102
RTVSPost2010PropOp35
 70
     1
102
RTVSPost2010Prop36
280
     0
102
RTVSPost2010PropOp36
 70
     1
102
RTVSPost2010Prop37
 90
       50
102
RTVSPost2010PropOp37
 70
     1
102
RTVSPost2010Prop38
140
0.0
102
RTVSPost2010PropOp38
 70
     1
102
RTVSPost2010Prop39
140
1.0
102
RTVSPost2010PropOp39
 70
     1
102
RTVSPost2010Prop40
 90
        0
102
RTVSPost2010PropOp40
 70
     1
102
RTVSPost2010Prop41ColorIndex
 90
       18
102
RTVSPost2010Prop41ColorRGB
 90
        0
102
RTVSPost2010PropOp41
 70
     1
102
RTVSPost2010Prop42
 90
       50
102
RTVSPost2010PropOp42
 70
     1
102
RTVSPost2010Prop43
 90
        3
102
RTVSPost2010PropOp43
 70
     1
102
RTVSPost2010Prop44ColorIndex
 90
        5
102
RTVSPost2010Prop44ColorRGB
 90
      255
102
RTVSPost2010PropOp44
 70
     1
102
RTVSPost2010Prop45
280
     0
102
RTVSPost2010PropOp45
 70
     1
102
RTVSPost2010Prop46
 90
       50
102
RTVSPost2010PropOp46
 70
     1
102
RTVSPost2010Prop47
 90
       50
102
RTVSPost2010PropOp47
 70
     1
102
RTVSPost2010Prop48
 90
       50
102
RTVSPost2010PropOp48
 70
     1
102
RTVSPost2010Prop49
280
     0
102
RTVSPost2010PropOp49
 70
     1
102
RTVSPost2010Prop50
 90
       50
102
RTVSPost2010PropOp50
 70
     1
102
RTVSPost2010Prop51ColorIndex
 90
      256
102
RTVSPost2010Prop51ColorRGB
 90
-16777216
102
RTVSPost2010PropOp51
 70
     0
102
RTVSPost2010Prop52
140
1.0
102
RTVSPost2010PropOp52
 70
     0
102
RTVSPost2010Prop53
 90
        2
102
RTVSPost2010PropOp53
 70
     1
102
RTVSPost2010Prop54
  1
strokes_ogs.tif
102
RTVSPost2010PropOp54
 70
     1
102
RTVSPost2010Prop55
280
     0
102
RTVSPost2010PropOp55
 70
     1
102
RTVSPost2010Prop56
140
1.0
102
RTVSPost2010PropOp56
 70
     1
102
RTVSPost2010Prop57
140
1.0
102
RTVSPost2010PropOp57
 70
     1
  0
XRECORD
  5
42C
102
{ACAD_REACTORS
330
42B
102
}
330
42B
100
AcDbXrecord
280
     1
102
RTVSPropertyOp0
 70
     0
102
RTVSPropertyOp1
 70
     0
102
RTVSPropertyOp2
 70
     0
102
RTVSPropertyOp3
 70
     0
102
RTVSPropertyOp4
 70
     0
102
RTVSPropertyOp5
 70
     0
102
RTVSPropertyOp6
 70
     0
102
RTVSPropertyOp7
 70
     0
102
RTVSPropertyOp8
 70
     0
102
RTVSPropertyOp9
 70
     0
102
RTVSPropertyOp10
 70
     0
102
RTVSPropertyOp11
 70
     0
102
RTVSPropertyOp12
 70
     0
102
RTVSPropertyOp13
 70
     0
102
RTVSPropertyOp14
 70
     0
102
RTVSPropertyOp15
 70
     0
102
RTVSPropertyOp16
 70
     0
102
RTVSPropertyOp17
 70
     0
102
RTVSPropertyOp18
 70
     0
102
RTVSPropertyOp19
 70
     0
102
RTVSPropertyOp20
 70
     0
102
RTVSPropertyOp21
 70
     0
102
RTVSPropertyOp22
 70
     0
102
RTVSPropertyOp23
 70
     0
102
RTVSPropertyOp24
 70
     0
102
RTVSPropertyOp25
 70
     0
102
RTVSPropertyOp26
 70
     0
102
RTVSPropertyOp27
 70
     0
102
RTVSPropertyOp28
 70
     1
102
RTVSPropertyOp29
 70
     1
102
RTVSPropertyOp30
 70
     1
102
RTVSPropertyOp31
 70
     1
102
RTVSPropertyOp32
 70
     1
102
RTVSPropertyOp33
 70
     1
102
RTVSPropertyOp34
 70
     1
102
RTVSPropertyOp35
 70
     1
102
RTVSPropertyOp36
 70
     1
102
RTVSPropertyOp37
 70
     1
102
RTVSPropertyOp38
 70
     1
102
RTVSPropertyOp39
 70
     1
102
RTVSPropertyOp40
 70
     1
102
RTVSPropertyOp41
 70
     1
102
RTVSPropertyOp42
 70
     1
102
RTVSPropertyOp43
 70
     1
102
RTVSPropertyOp44
 70
     1
102
RTVSPropertyOp45
 70
     1
102
RTVSPropertyOp46
 70
     1
102
RTVSPropertyOp47
 70
     1
102
RTVSPropertyOp48
 70
     1
102
RTVSPropertyOp49
 70
     1
102
RTVSPropertyOp50
 70
     1
102
RTVSPropertyOp51
 70
     0
102
RTVSPropertyOp52
 70
     0
102
RTVSPropertyOp53
 70
     1
102
RTVSPropertyOp54
 70
     1
102
RTVSPropertyOp55
 70
     1
102
RTVSPropertyOp56
 70
     1
102
RTVSPropertyOp57
 70
     1
102
RTVSPost2010Prop28
280
     0
102
RTVSPost2010PropOp28
 70
     1
102
RTVSPost2010Prop29
280
     1
102
RTVSPost2010PropOp29
 70
     1
102
RTVSPost2010Prop30
280
     1
102
RTVSPost2010PropOp30
 70
     1
102
RTVSPost2010Prop31
280
     0
102
RTVSPost2010PropOp31
 70
     1
102
RTVSPost2010Prop32
280
     0
102
RTVSPost2010PropOp32
 70
     1
102
RTVSPost2010Prop33
280
     0
102
RTVSPost2010PropOp33
 70
     1
102
RTVSPost2010Prop34
280
     0
102
RTVSPost2010PropOp34
 70
     1
102
RTVSPost2010Prop35
280
     0
102
RTVSPost2010PropOp35
 70
     1
102
RTVSPost2010Prop36
280
     0
102
RTVSPost2010PropOp36
 70
     1
102
RTVSPost2010Prop37
 90
       50
102
RTVSPost2010PropOp37
 70
     1
102
RTVSPost2010Prop38
140
0.0
102
RTVSPost2010PropOp38
 70
     1
102
RTVSPost2010Prop39
140
1.0
102
RTVSPost2010PropOp39
 70
     1
102
RTVSPost2010Prop40
 90
        0
102
RTVSPost2010PropOp40
 70
     1
102
RTVSPost2010Prop41ColorIndex
 90
       18
102
RTVSPost2010Prop41ColorRGB
 90
        0
102
RTVSPost2010PropOp41
 70
     1
102
RTVSPost2010Prop42
 90
       50
102
RTVSPost2010PropOp42
 70
     1
102
RTVSPost2010Prop43
 90
        3
102
RTVSPost2010PropOp43
 70
     1
102
RTVSPost2010Prop44ColorIndex
 90
        5
102
RTVSPost2010Prop44ColorRGB
 90
      255
102
RTVSPost2010PropOp44
 70
     1
102
RTVSPost2010Prop45
280
     0
102
RTVSPost2010PropOp45
 70
     1
102
RTVSPost2010Prop46
 90
       50
102
RTVSPost2010PropOp46
 70
     1
102
RTVSPost2010Prop47
 90
       50
102
RTVSPost2010PropOp47
 70
     1
102
RTVSPost2010Prop48
 90
       50
102
RTVSPost2010PropOp48
 70
     1
102
RTVSPost2010Prop49
280
     0
102
RTVSPost2010PropOp49
 70
     1
102
RTVSPost2010Prop50
 90
       50
102
RTVSPost2010PropOp50
 70
     1
102
RTVSPost2010Prop51ColorIndex
 90
      256
102
RTVSPost2010Prop51ColorRGB
 90
-16777216
102
RTVSPost2010PropOp51
 70
     0
102
RTVSPost2010Prop52
140
1.0
102
RTVSPost2010PropOp52
 70
     0
102
RTVSPost2010Prop53
 90
        2
102
RTVSPost2010PropOp53
 70
     1
102
RTVSPost2010Prop54
  1
strokes_ogs.tif
102
RTVSPost2010PropOp54
 70
     1
102
RTVSPost2010Prop55
280
     0
102
RTVSPost2010PropOp55
 70
     1
102
RTVSPost2010Prop56
140
1.0
102
RTVSPost2010PropOp56
 70
     1
102
RTVSPost2010Prop57
140
1.0
102
RTVSPost2010PropOp57
 70
     1
  0
XRECORD
  5
41A
102
{ACAD_REACTORS
330
419
102
}
330
419
100
AcDbXrecord
280
     1
102
RTVSPropertyOp0
 70
     1
102
RTVSPropertyOp1
 70
     1
102
RTVSPropertyOp2
 70
     1
102
RTVSPropertyOp3
 70
     1
102
RTVSPropertyOp4
 70
     1
102
RTVSPropertyOp5
 70
     1
102
RTVSPropertyOp6
 70
     1
102
RTVSPropertyOp7
 70
     1
102
RTVSPropertyOp8
 70
     1
102
RTVSPropertyOp9
 70
     1
102
RTVSPropertyOp10
 70
     1
102
RTVSPropertyOp11
 70
     1
102
RTVSPropertyOp12
 70
     1
102
RTVSPropertyOp13
 70
     1
102
RTVSPropertyOp14
 70
     1
102
RTVSPropertyOp15
 70
     1
102
RTVSPropertyOp16
 70
     1
102
RTVSPropertyOp17
 70
     1
102
RTVSPropertyOp18
 70
     1
102
RTVSPropertyOp19
 70
     1
102
RTVSPropertyOp20
 70
     1
102
RTVSPropertyOp21
 70
     1
102
RTVSPropertyOp22
 70
     1
102
RTVSPropertyOp23
 70
     1
102
RTVSPropertyOp24
 70
     1
102
RTVSPropertyOp25
 70
     1
102
RTVSPropertyOp26
 70
     1
102
RTVSPropertyOp27
 70
     1
102
RTVSPropertyOp28
 70
     1
102
RTVSPropertyOp29
 70
     1
102
RTVSPropertyOp30
 70
     1
102
RTVSPropertyOp31
 70
     1
102
RTVSPropertyOp32
 70
     1
102
RTVSPropertyOp33
 70
     1
102
RTVSPropertyOp34
 70
     1
102
RTVSPropertyOp35
 70
     1
102
RTVSPropertyOp36
 70
     1
102
RTVSPropertyOp37
 70
     1
102
RTVSPropertyOp38
 70
     1
102
RTVSPropertyOp39
 70
     1
102
RTVSPropertyOp40
 70
     1
102
RTVSPropertyOp41
 70
     1
102
RTVSPropertyOp42
 70
     1
102
RTVSPropertyOp43
 70
     1
102
RTVSPropertyOp44
 70
     1
102
RTVSPropertyOp45
 70
     1
102
RTVSPropertyOp46
 70
     1
102
RTVSPropertyOp47
 70
     1
102
RTVSPropertyOp48
 70
     1
102
RTVSPropertyOp49
 70
     1
102
RTVSPropertyOp50
 70
     1
102
RTVSPropertyOp51
 70
     0
102
RTVSPropertyOp52
 70
     0
102
RTVSPropertyOp53
 70
     1
102
RTVSPropertyOp54
 70
     1
102
RTVSPropertyOp55
 70
     1
102
RTVSPropertyOp56
 70
     1
102
RTVSPropertyOp57
 70
     1
102
RTVSPost2010Prop28
280
     0
102
RTVSPost2010PropOp28
 70
     1
102
RTVSPost2010Prop29
280
     1
102
RTVSPost2010PropOp29
 70
     1
102
RTVSPost2010Prop30
280
     1
102
RTVSPost2010PropOp30
 70
     1
102
RTVSPost2010Prop31
280
     0
102
RTVSPost2010PropOp31
 70
     1
102
RTVSPost2010Prop32
280
     0
102
RTVSPost2010PropOp32
 70
     1
102
RTVSPost2010Prop33
280
     0
102
RTVSPost2010PropOp33
 70
     1
102
RTVSPost2010Prop34
280
     0
102
RTVSPost2010PropOp34
 70
     1
102
RTVSPost2010Prop35
280
     0
102
RTVSPost2010PropOp35
 70
     1
102
RTVSPost2010Prop36
280
     0
102
RTVSPost2010PropOp36
 70
     1
102
RTVSPost2010Prop37
 90
       50
102
RTVSPost2010PropOp37
 70
     1
102
RTVSPost2010Prop38
140
0.0
102
RTVSPost2010PropOp38
 70
     1
102
RTVSPost2010Prop39
140
1.0
102
RTVSPost2010PropOp39
 70
     1
102
RTVSPost2010Prop40
 90
        0
102
RTVSPost2010PropOp40
 70
     1
102
RTVSPost2010Prop41ColorIndex
 90
       18
102
RTVSPost2010Prop41ColorRGB
 90
        0
102
RTVSPost2010PropOp41
 70
     1
102
RTVSPost2010Prop42
 90
       50
102
RTVSPost2010PropOp42
 70
     1
102
RTVSPost2010Prop43
 90
        3
102
RTVSPost2010PropOp43
 70
     1
102
RTVSPost2010Prop44ColorIndex
 90
        5
102
RTVSPost2010Prop44ColorRGB
 90
      255
102
RTVSPost2010PropOp44
 70
     1
102
RTVSPost2010Prop45
280
     0
102
RTVSPost2010PropOp45
 70
     1
102
RTVSPost2010Prop46
 90
       50
102
RTVSPost2010PropOp46
 70
     1
102
RTVSPost2010Prop47
 90
       50
102
RTVSPost2010PropOp47
 70
     1
102
RTVSPost2010Prop48
 90
       50
102
RTVSPost2010PropOp48
 70
     1
102
RTVSPost2010Prop49
280
     0
102
RTVSPost2010PropOp49
 70
     1
102
RTVSPost2010Prop50
 90
       50
102
RTVSPost2010PropOp50
 70
     1
102
RTVSPost2010Prop51ColorIndex
 90
      256
102
RTVSPost2010Prop51ColorRGB
 90
-16777216
102
RTVSPost2010PropOp51
 70
     0
102
RTVSPost2010Prop52
140
1.0
102
RTVSPost2010PropOp52
 70
     0
102
RTVSPost2010Prop53
 90
        2
102
RTVSPost2010PropOp53
 70
     1
102
RTVSPost2010Prop54
  1
strokes_ogs.tif
102
RTVSPost2010PropOp54
 70
     1
102
RTVSPost2010Prop55
280
     0
102
RTVSPost2010PropOp55
 70
     1
102
RTVSPost2010Prop56
140
1.0
102
RTVSPost2010PropOp56
 70
     1
102
RTVSPost2010Prop57
140
1.0
102
RTVSPost2010PropOp57
 70
     1
  0
XRECORD
  5
438
102
{ACAD_REACTORS
330
437
102
}
330
437
100
AcDbXrecord
280
     1
102
RTVSPropertyOp0
 70
     1
102
RTVSPropertyOp1
 70
     1
102
RTVSPropertyOp2
 70
     1
102
RTVSPropertyOp3
 70
     1
102
RTVSPropertyOp4
 70
     1
102
RTVSPropertyOp5
 70
     1
102
RTVSPropertyOp6
 70
     1
102
RTVSPropertyOp7
 70
     1
102
RTVSPropertyOp8
 70
     1
102
RTVSPropertyOp9
 70
     1
102
RTVSPropertyOp10
 70
     1
102
RTVSPropertyOp11
 70
     1
102
RTVSPropertyOp12
 70
     1
102
RTVSPropertyOp13
 70
     1
102
RTVSPropertyOp14
 70
     1
102
RTVSPropertyOp15
 70
     1
102
RTVSPropertyOp16
 70
     1
102
RTVSPropertyOp17
 70
     1
102
RTVSPropertyOp18
 70
     1
102
RTVSPropertyOp19
 70
     1
102
RTVSPropertyOp20
 70
     1
102
RTVSPropertyOp21
 70
     1
102
RTVSPropertyOp22
 70
     1
102
RTVSPropertyOp23
 70
     1
102
RTVSPropertyOp24
 70
     1
102
RTVSPropertyOp25
 70
     1
102
RTVSPropertyOp26
 70
     1
102
RTVSPropertyOp27
 70
     1
102
RTVSPropertyOp28
 70
     1
102
RTVSPropertyOp29
 70
     1
102
RTVSPropertyOp30
 70
     1
102
RTVSPropertyOp31
 70
     1
102
RTVSPropertyOp32
 70
     1
102
RTVSPropertyOp33
 70
     1
102
RTVSPropertyOp34
 70
     1
102
RTVSPropertyOp35
 70
     1
102
RTVSPropertyOp36
 70
     1
102
RTVSPropertyOp37
 70
     1
102
RTVSPropertyOp38
 70
     1
102
RTVSPropertyOp39
 70
     1
102
RTVSPropertyOp40
 70
     1
102
RTVSPropertyOp41
 70
     1
102
RTVSPropertyOp42
 70
     1
102
RTVSPropertyOp43
 70
     1
102
RTVSPropertyOp44
 70
     1
102
RTVSPropertyOp45
 70
     1
102
RTVSPropertyOp46
 70
     1
102
RTVSPropertyOp47
 70
     1
102
RTVSPropertyOp48
 70
     1
102
RTVSPropertyOp49
 70
     1
102
RTVSPropertyOp50
 70
     1
102
RTVSPropertyOp51
 70
     0
102
RTVSPropertyOp52
 70
     0
102
RTVSPropertyOp53
 70
     1
102
RTVSPropertyOp54
 70
     1
102
RTVSPropertyOp55
 70
     1
102
RTVSPropertyOp56
 70
     1
102
RTVSPropertyOp57
 70
     1
102
RTVSPost2010Prop28
280
     0
102
RTVSPost2010PropOp28
 70
     1
102
RTVSPost2010Prop29
280
     1
102
RTVSPost2010PropOp29
 70
     1
102
RTVSPost2010Prop30
280
     1
102
RTVSPost2010PropOp30
 70
     1
102
RTVSPost2010Prop31
280
     0
102
RTVSPost2010PropOp31
 70
     1
102
RTVSPost2010Prop32
280
     0
102
RTVSPost2010PropOp32
 70
     1
102
RTVSPost2010Prop33
280
     0
102
RTVSPost2010PropOp33
 70
     1
102
RTVSPost2010Prop34
280
     0
102
RTVSPost2010PropOp34
 70
     1
102
RTVSPost2010Prop35
280
     0
102
RTVSPost2010PropOp35
 70
     1
102
RTVSPost2010Prop36
280
     0
102
RTVSPost2010PropOp36
 70
     1
102
RTVSPost2010Prop37
 90
       50
102
RTVSPost2010PropOp37
 70
     1
102
RTVSPost2010Prop38
140
0.0
102
RTVSPost2010PropOp38
 70
     1
102
RTVSPost2010Prop39
140
1.0
102
RTVSPost2010PropOp39
 70
     1
102
RTVSPost2010Prop40
 90
        0
102
RTVSPost2010PropOp40
 70
     1
102
RTVSPost2010Prop41ColorIndex
 90
       18
102
RTVSPost2010Prop41ColorRGB
 90
        0
102
RTVSPost2010PropOp41
 70
     1
102
RTVSPost2010Prop42
 90
       50
102
RTVSPost2010PropOp42
 70
     1
102
RTVSPost2010Prop43
 90
        3
102
RTVSPost2010PropOp43
 70
     1
102
RTVSPost2010Prop44ColorIndex
 90
        5
102
RTVSPost2010Prop44ColorRGB
 90
      255
102
RTVSPost2010PropOp44
 70
     1
102
RTVSPost2010Prop45
280
     0
102
RTVSPost2010PropOp45
 70
     1
102
RTVSPost2010Prop46
 90
       50
102
RTVSPost2010PropOp46
 70
     1
102
RTVSPost2010Prop47
 90
       50
102
RTVSPost2010PropOp47
 70
     1
102
RTVSPost2010Prop48
 90
       50
102
RTVSPost2010PropOp48
 70
     1
102
RTVSPost2010Prop49
280
     0
102
RTVSPost2010PropOp49
 70
     1
102
RTVSPost2010Prop50
 90
       50
102
RTVSPost2010PropOp50
 70
     1
102
RTVSPost2010Prop51ColorIndex
 90
      256
102
RTVSPost2010Prop51ColorRGB
 90
-16777216
102
RTVSPost2010PropOp51
 70
     0
102
RTVSPost2010Prop52
140
1.0
102
RTVSPost2010PropOp52
 70
     0
102
RTVSPost2010Prop53
 90
        2
102
RTVSPost2010PropOp53
 70
     1
102
RTVSPost2010Prop54
  1
strokes_ogs.tif
102
RTVSPost2010PropOp54
 70
     1
102
RTVSPost2010Prop55
280
     0
102
RTVSPost2010PropOp55
 70
     1
102
RTVSPost2010Prop56
140
1.0
102
RTVSPost2010PropOp56
 70
     1
102
RTVSPost2010Prop57
140
1.0
102
RTVSPost2010PropOp57
 70
     1
  0
XRECORD
  5
436
102
{ACAD_REACTORS
330
435
102
}
330
435
100
AcDbXrecord
280
     1
102
RTVSPropertyOp0
 70
     1
102
RTVSPropertyOp1
 70
     1
102
RTVSPropertyOp2
 70
     1
102
RTVSPropertyOp3
 70
     1
102
RTVSPropertyOp4
 70
     1
102
RTVSPropertyOp5
 70
     1
102
RTVSPropertyOp6
 70
     1
102
RTVSPropertyOp7
 70
     1
102
RTVSPropertyOp8
 70
     1
102
RTVSPropertyOp9
 70
     1
102
RTVSPropertyOp10
 70
     1
102
RTVSPropertyOp11
 70
     1
102
RTVSPropertyOp12
 70
     1
102
RTVSPropertyOp13
 70
     1
102
RTVSPropertyOp14
 70
     1
102
RTVSPropertyOp15
 70
     1
102
RTVSPropertyOp16
 70
     1
102
RTVSPropertyOp17
 70
     1
102
RTVSPropertyOp18
 70
     1
102
RTVSPropertyOp19
 70
     1
102
RTVSPropertyOp20
 70
     1
102
RTVSPropertyOp21
 70
     1
102
RTVSPropertyOp22
 70
     1
102
RTVSPropertyOp23
 70
     1
102
RTVSPropertyOp24
 70
     1
102
RTVSPropertyOp25
 70
     1
102
RTVSPropertyOp26
 70
     1
102
RTVSPropertyOp27
 70
     1
102
RTVSPropertyOp28
 70
     1
102
RTVSPropertyOp29
 70
     1
102
RTVSPropertyOp30
 70
     1
102
RTVSPropertyOp31
 70
     1
102
RTVSPropertyOp32
 70
     1
102
RTVSPropertyOp33
 70
     1
102
RTVSPropertyOp34
 70
     1
102
RTVSPropertyOp35
 70
     1
102
RTVSPropertyOp36
 70
     1
102
RTVSPropertyOp37
 70
     1
102
RTVSPropertyOp38
 70
     1
102
RTVSPropertyOp39
 70
     1
102
RTVSPropertyOp40
 70
     1
102
RTVSPropertyOp41
 70
     1
102
RTVSPropertyOp42
 70
     1
102
RTVSPropertyOp43
 70
     1
102
RTVSPropertyOp44
 70
     1
102
RTVSPropertyOp45
 70
     1
102
RTVSPropertyOp46
 70
     1
102
RTVSPropertyOp47
 70
     1
102
RTVSPropertyOp48
 70
     1
102
RTVSPropertyOp49
 70
     1
102
RTVSPropertyOp50
 70
     1
102
RTVSPropertyOp51
 70
     0
102
RTVSPropertyOp52
 70
     0
102
RTVSPropertyOp53
 70
     1
102
RTVSPropertyOp54
 70
     1
102
RTVSPropertyOp55
 70
     1
102
RTVSPropertyOp56
 70
     1
102
RTVSPropertyOp57
 70
     1
102
RTVSPost2010Prop28
280
     0
102
RTVSPost2010PropOp28
 70
     1
102
RTVSPost2010Prop29
280
     1
102
RTVSPost2010PropOp29
 70
     1
102
RTVSPost2010Prop30
280
     1
102
RTVSPost2010PropOp30
 70
     1
102
RTVSPost2010Prop31
280
     0
102
RTVSPost2010PropOp31
 70
     1
102
RTVSPost2010Prop32
280
     0
102
RTVSPost2010PropOp32
 70
     1
102
RTVSPost2010Prop33
280
     0
102
RTVSPost2010PropOp33
 70
     1
102
RTVSPost2010Prop34
280
     0
102
RTVSPost2010PropOp34
 70
     1
102
RTVSPost2010Prop35
280
     0
102
RTVSPost2010PropOp35
 70
     1
102
RTVSPost2010Prop36
280
     0
102
RTVSPost2010PropOp36
 70
     1
102
RTVSPost2010Prop37
 90
       50
102
RTVSPost2010PropOp37
 70
     1
102
RTVSPost2010Prop38
140
0.0
102
RTVSPost2010PropOp38
 70
     1
102
RTVSPost2010Prop39
140
1.0
102
RTVSPost2010PropOp39
 70
     1
102
RTVSPost2010Prop40
 90
        0
102
RTVSPost2010PropOp40
 70
     1
102
RTVSPost2010Prop41ColorIndex
 90
       18
102
RTVSPost2010Prop41ColorRGB
 90
        0
102
RTVSPost2010PropOp41
 70
     1
102
RTVSPost2010Prop42
 90
       50
102
RTVSPost2010PropOp42
 70
     1
102
RTVSPost2010Prop43
 90
        3
102
RTVSPost2010PropOp43
 70
     1
102
RTVSPost2010Prop44ColorIndex
 90
        5
102
RTVSPost2010Prop44ColorRGB
 90
      255
102
RTVSPost2010PropOp44
 70
     1
102
RTVSPost2010Prop45
280
     0
102
RTVSPost2010PropOp45
 70
     1
102
RTVSPost2010Prop46
 90
       50
102
RTVSPost2010PropOp46
 70
     1
102
RTVSPost2010Prop47
 90
       50
102
RTVSPost2010PropOp47
 70
     1
102
RTVSPost2010Prop48
 90
       50
102
RTVSPost2010PropOp48
 70
     1
102
RTVSPost2010Prop49
280
     0
102
RTVSPost2010PropOp49
 70
     1
102
RTVSPost2010Prop50
 90
       50
102
RTVSPost2010PropOp50
 70
     1
102
RTVSPost2010Prop51ColorIndex
 90
      256
102
RTVSPost2010Prop51ColorRGB
 90
-16777216
102
RTVSPost2010PropOp51
 70
     0
102
RTVSPost2010Prop52
140
1.0
102
RTVSPost2010PropOp52
 70
     0
102
RTVSPost2010Prop53
 90
        2
102
RTVSPost2010PropOp53
 70
     1
102
RTVSPost2010Prop54
  1
strokes_ogs.tif
102
RTVSPost2010PropOp54
 70
     1
102
RTVSPost2010Prop55
280
     0
102
RTVSPost2010PropOp55
 70
     1
102
RTVSPost2010Prop56
140
1.0
102
RTVSPost2010PropOp56
 70
     1
102
RTVSPost2010Prop57
140
1.0
102
RTVSPost2010PropOp57
 70
     1
  0
XRECORD
  5
430
102
{ACAD_REACTORS
330
42F
102
}
330
42F
100
AcDbXrecord
280
     1
102
RTVSPropertyOp0
 70
     1
102
RTVSPropertyOp1
 70
     1
102
RTVSPropertyOp2
 70
     1
102
RTVSPropertyOp3
 70
     1
102
RTVSPropertyOp4
 70
     1
102
RTVSPropertyOp5
 70
     1
102
RTVSPropertyOp6
 70
     1
102
RTVSPropertyOp7
 70
     1
102
RTVSPropertyOp8
 70
     1
102
RTVSPropertyOp9
 70
     1
102
RTVSPropertyOp10
 70
     1
102
RTVSPropertyOp11
 70
     1
102
RTVSPropertyOp12
 70
     1
102
RTVSPropertyOp13
 70
     1
102
RTVSPropertyOp14
 70
     1
102
RTVSPropertyOp15
 70
     1
102
RTVSPropertyOp16
 70
     1
102
RTVSPropertyOp17
 70
     1
102
RTVSPropertyOp18
 70
     1
102
RTVSPropertyOp19
 70
     1
102
RTVSPropertyOp20
 70
     1
102
RTVSPropertyOp21
 70
     1
102
RTVSPropertyOp22
 70
     1
102
RTVSPropertyOp23
 70
     1
102
RTVSPropertyOp24
 70
     1
102
RTVSPropertyOp25
 70
     1
102
RTVSPropertyOp26
 70
     1
102
RTVSPropertyOp27
 70
     1
102
RTVSPropertyOp28
 70
     1
102
RTVSPropertyOp29
 70
     1
102
RTVSPropertyOp30
 70
     1
102
RTVSPropertyOp31
 70
     1
102
RTVSPropertyOp32
 70
     1
102
RTVSPropertyOp33
 70
     1
102
RTVSPropertyOp34
 70
     1
102
RTVSPropertyOp35
 70
     1
102
RTVSPropertyOp36
 70
     1
102
RTVSPropertyOp37
 70
     1
102
RTVSPropertyOp38
 70
     1
102
RTVSPropertyOp39
 70
     1
102
RTVSPropertyOp40
 70
     1
102
RTVSPropertyOp41
 70
     1
102
RTVSPropertyOp42
 70
     1
102
RTVSPropertyOp43
 70
     1
102
RTVSPropertyOp44
 70
     1
102
RTVSPropertyOp45
 70
     1
102
RTVSPropertyOp46
 70
     1
102
RTVSPropertyOp47
 70
     1
102
RTVSPropertyOp48
 70
     1
102
RTVSPropertyOp49
 70
     1
102
RTVSPropertyOp50
 70
     1
102
RTVSPropertyOp51
 70
     0
102
RTVSPropertyOp52
 70
     0
102
RTVSPropertyOp53
 70
     1
102
RTVSPropertyOp54
 70
     1
102
RTVSPropertyOp55
 70
     1
102
RTVSPropertyOp56
 70
     1
102
RTVSPropertyOp57
 70
     1
102
RTVSPost2010Prop28
280
     0
102
RTVSPost2010PropOp28
 70
     1
102
RTVSPost2010Prop29
280
     1
102
RTVSPost2010PropOp29
 70
     1
102
RTVSPost2010Prop30
280
     1
102
RTVSPost2010PropOp30
 70
     1
102
RTVSPost2010Prop31
280
     0
102
RTVSPost2010PropOp31
 70
     1
102
RTVSPost2010Prop32
280
     0
102
RTVSPost2010PropOp32
 70
     1
102
RTVSPost2010Prop33
280
     0
102
RTVSPost2010PropOp33
 70
     1
102
RTVSPost2010Prop34
280
     0
102
RTVSPost2010PropOp34
 70
     1
102
RTVSPost2010Prop35
280
     0
102
RTVSPost2010PropOp35
 70
     1
102
RTVSPost2010Prop36
280
     0
102
RTVSPost2010PropOp36
 70
     1
102
RTVSPost2010Prop37
 90
       50
102
RTVSPost2010PropOp37
 70
     1
102
RTVSPost2010Prop38
140
0.0
102
RTVSPost2010PropOp38
 70
     1
102
RTVSPost2010Prop39
140
1.0
102
RTVSPost2010PropOp39
 70
     1
102
RTVSPost2010Prop40
 90
        0
102
RTVSPost2010PropOp40
 70
     1
102
RTVSPost2010Prop41ColorIndex
 90
       18
102
RTVSPost2010Prop41ColorRGB
 90
        0
102
RTVSPost2010PropOp41
 70
     1
102
RTVSPost2010Prop42
 90
       50
102
RTVSPost2010PropOp42
 70
     1
102
RTVSPost2010Prop43
 90
        3
102
RTVSPost2010PropOp43
 70
     1
102
RTVSPost2010Prop44ColorIndex
 90
        5
102
RTVSPost2010Prop44ColorRGB
 90
      255
102
RTVSPost2010PropOp44
 70
     1
102
RTVSPost2010Prop45
280
     0
102
RTVSPost2010PropOp45
 70
     1
102
RTVSPost2010Prop46
 90
       50
102
RTVSPost2010PropOp46
 70
     1
102
RTVSPost2010Prop47
 90
       50
102
RTVSPost2010PropOp47
 70
     1
102
RTVSPost2010Prop48
 90
       50
102
RTVSPost2010PropOp48
 70
     1
102
RTVSPost2010Prop49
280
     0
102
RTVSPost2010PropOp49
 70
     1
102
RTVSPost2010Prop50
 90
       50
102
RTVSPost2010PropOp50
 70
     1
102
RTVSPost2010Prop51ColorIndex
 90
      256
102
RTVSPost2010Prop51ColorRGB
 90
-16777216
102
RTVSPost2010PropOp51
 70
     0
102
RTVSPost2010Prop52
140
1.0
102
RTVSPost2010PropOp52
 70
     0
102
RTVSPost2010Prop53
 90
        2
102
RTVSPost2010PropOp53
 70
     1
102
RTVSPost2010Prop54
  1
strokes_ogs.tif
102
RTVSPost2010PropOp54
 70
     1
102
RTVSPost2010Prop55
280
     0
102
RTVSPost2010PropOp55
 70
     1
102
RTVSPost2010Prop56
140
1.0
102
RTVSPost2010PropOp56
 70
     1
102
RTVSPost2010Prop57
140
1.0
102
RTVSPost2010PropOp57
 70
     1
  0
XRECORD
  5
432
102
{ACAD_REACTORS
330
431
102
}
330
431
100
AcDbXrecord
280
     1
102
RTVSPropertyOp0
 70
     1
102
RTVSPropertyOp1
 70
     1
102
RTVSPropertyOp2
 70
     1
102
RTVSPropertyOp3
 70
     1
102
RTVSPropertyOp4
 70
     1
102
RTVSPropertyOp5
 70
     1
102
RTVSPropertyOp6
 70
     1
102
RTVSPropertyOp7
 70
     1
102
RTVSPropertyOp8
 70
     1
102
RTVSPropertyOp9
 70
     1
102
RTVSPropertyOp10
 70
     1
102
RTVSPropertyOp11
 70
     1
102
RTVSPropertyOp12
 70
     1
102
RTVSPropertyOp13
 70
     1
102
RTVSPropertyOp14
 70
     1
102
RTVSPropertyOp15
 70
     1
102
RTVSPropertyOp16
 70
     1
102
RTVSPropertyOp17
 70
     1
102
RTVSPropertyOp18
 70
     1
102
RTVSPropertyOp19
 70
     1
102
RTVSPropertyOp20
 70
     1
102
RTVSPropertyOp21
 70
     1
102
RTVSPropertyOp22
 70
     1
102
RTVSPropertyOp23
 70
     1
102
RTVSPropertyOp24
 70
     1
102
RTVSPropertyOp25
 70
     1
102
RTVSPropertyOp26
 70
     1
102
RTVSPropertyOp27
 70
     1
102
RTVSPropertyOp28
 70
     1
102
RTVSPropertyOp29
 70
     1
102
RTVSPropertyOp30
 70
     1
102
RTVSPropertyOp31
 70
     1
102
RTVSPropertyOp32
 70
     1
102
RTVSPropertyOp33
 70
     1
102
RTVSPropertyOp34
 70
     1
102
RTVSPropertyOp35
 70
     1
102
RTVSPropertyOp36
 70
     1
102
RTVSPropertyOp37
 70
     1
102
RTVSPropertyOp38
 70
     1
102
RTVSPropertyOp39
 70
     1
102
RTVSPropertyOp40
 70
     1
102
RTVSPropertyOp41
 70
     1
102
RTVSPropertyOp42
 70
     1
102
RTVSPropertyOp43
 70
     1
102
RTVSPropertyOp44
 70
     1
102
RTVSPropertyOp45
 70
     1
102
RTVSPropertyOp46
 70
     1
102
RTVSPropertyOp47
 70
     1
102
RTVSPropertyOp48
 70
     1
102
RTVSPropertyOp49
 70
     1
102
RTVSPropertyOp50
 70
     1
102
RTVSPropertyOp51
 70
     0
102
RTVSPropertyOp52
 70
     0
102
RTVSPropertyOp53
 70
     1
102
RTVSPropertyOp54
 70
     1
102
RTVSPropertyOp55
 70
     1
102
RTVSPropertyOp56
 70
     1
102
RTVSPropertyOp57
 70
     1
102
RTVSPost2010Prop28
280
     0
102
RTVSPost2010PropOp28
 70
     1
102
RTVSPost2010Prop29
280
     1
102
RTVSPost2010PropOp29
 70
     1
102
RTVSPost2010Prop30
280
     1
102
RTVSPost2010PropOp30
 70
     1
102
RTVSPost2010Prop31
280
     0
102
RTVSPost2010PropOp31
 70
     1
102
RTVSPost2010Prop32
280
     0
102
RTVSPost2010PropOp32
 70
     1
102
RTVSPost2010Prop33
280
     0
102
RTVSPost2010PropOp33
 70
     1
102
RTVSPost2010Prop34
280
     0
102
RTVSPost2010PropOp34
 70
     1
102
RTVSPost2010Prop35
280
     0
102
RTVSPost2010PropOp35
 70
     1
102
RTVSPost2010Prop36
280
     0
102
RTVSPost2010PropOp36
 70
     1
102
RTVSPost2010Prop37
 90
       50
102
RTVSPost2010PropOp37
 70
     1
102
RTVSPost2010Prop38
140
0.0
102
RTVSPost2010PropOp38
 70
     1
102
RTVSPost2010Prop39
140
1.0
102
RTVSPost2010PropOp39
 70
     1
102
RTVSPost2010Prop40
 90
        0
102
RTVSPost2010PropOp40
 70
     1
102
RTVSPost2010Prop41ColorIndex
 90
       18
102
RTVSPost2010Prop41ColorRGB
 90
        0
102
RTVSPost2010PropOp41
 70
     1
102
RTVSPost2010Prop42
 90
       50
102
RTVSPost2010PropOp42
 70
     1
102
RTVSPost2010Prop43
 90
        3
102
RTVSPost2010PropOp43
 70
     1
102
RTVSPost2010Prop44ColorIndex
 90
        5
102
RTVSPost2010Prop44ColorRGB
 90
      255
102
RTVSPost2010PropOp44
 70
     1
102
RTVSPost2010Prop45
280
     0
102
RTVSPost2010PropOp45
 70
     1
102
RTVSPost2010Prop46
 90
       50
102
RTVSPost2010PropOp46
 70
     1
102
RTVSPost2010Prop47
 90
       50
102
RTVSPost2010PropOp47
 70
     1
102
RTVSPost2010Prop48
 90
       50
102
RTVSPost2010PropOp48
 70
     1
102
RTVSPost2010Prop49
280
     0
102
RTVSPost2010PropOp49
 70
     1
102
RTVSPost2010Prop50
 90
       50
102
RTVSPost2010PropOp50
 70
     1
102
RTVSPost2010Prop51ColorIndex
 90
      256
102
RTVSPost2010Prop51ColorRGB
 90
-16777216
102
RTVSPost2010PropOp51
 70
     0
102
RTVSPost2010Prop52
140
1.0
102
RTVSPost2010PropOp52
 70
     0
102
RTVSPost2010Prop53
 90
        2
102
RTVSPost2010PropOp53
 70
     1
102
RTVSPost2010Prop54
  1
strokes_ogs.tif
102
RTVSPost2010PropOp54
 70
     1
102
RTVSPost2010Prop55
280
     0
102
RTVSPost2010PropOp55
 70
     1
102
RTVSPost2010Prop56
140
1.0
102
RTVSPost2010PropOp56
 70
     1
102
RTVSPost2010Prop57
140
1.0
102
RTVSPost2010PropOp57
 70
     1
  0
XRECORD
  5
422
102
{ACAD_REACTORS
330
421
102
}
330
421
100
AcDbXrecord
280
     1
102
RTVSPropertyOp0
 70
     1
102
RTVSPropertyOp1
 70
     1
102
RTVSPropertyOp2
 70
     1
102
RTVSPropertyOp3
 70
     1
102
RTVSPropertyOp4
 70
     1
102
RTVSPropertyOp5
 70
     1
102
RTVSPropertyOp6
 70
     1
102
RTVSPropertyOp7
 70
     1
102
RTVSPropertyOp8
 70
     1
102
RTVSPropertyOp9
 70
     1
102
RTVSPropertyOp10
 70
     1
102
RTVSPropertyOp11
 70
     1
102
RTVSPropertyOp12
 70
     1
102
RTVSPropertyOp13
 70
     1
102
RTVSPropertyOp14
 70
     1
102
RTVSPropertyOp15
 70
     1
102
RTVSPropertyOp16
 70
     1
102
RTVSPropertyOp17
 70
     1
102
RTVSPropertyOp18
 70
     1
102
RTVSPropertyOp19
 70
     1
102
RTVSPropertyOp20
 70
     1
102
RTVSPropertyOp21
 70
     1
102
RTVSPropertyOp22
 70
     1
102
RTVSPropertyOp23
 70
     1
102
RTVSPropertyOp24
 70
     1
102
RTVSPropertyOp25
 70
     1
102
RTVSPropertyOp26
 70
     1
102
RTVSPropertyOp27
 70
     1
102
RTVSPropertyOp28
 70
     1
102
RTVSPropertyOp29
 70
     1
102
RTVSPropertyOp30
 70
     1
102
RTVSPropertyOp31
 70
     1
102
RTVSPropertyOp32
 70
     1
102
RTVSPropertyOp33
 70
     1
102
RTVSPropertyOp34
 70
     1
102
RTVSPropertyOp35
 70
     1
102
RTVSPropertyOp36
 70
     1
102
RTVSPropertyOp37
 70
     1
102
RTVSPropertyOp38
 70
     1
102
RTVSPropertyOp39
 70
     1
102
RTVSPropertyOp40
 70
     1
102
RTVSPropertyOp41
 70
     1
102
RTVSPropertyOp42
 70
     1
102
RTVSPropertyOp43
 70
     1
102
RTVSPropertyOp44
 70
     1
102
RTVSPropertyOp45
 70
     1
102
RTVSPropertyOp46
 70
     1
102
RTVSPropertyOp47
 70
     1
102
RTVSPropertyOp48
 70
     1
102
RTVSPropertyOp49
 70
     1
102
RTVSPropertyOp50
 70
     1
102
RTVSPropertyOp51
 70
     0
102
RTVSPropertyOp52
 70
     0
102
RTVSPropertyOp53
 70
     1
102
RTVSPropertyOp54
 70
     1
102
RTVSPropertyOp55
 70
     1
102
RTVSPropertyOp56
 70
     1
102
RTVSPropertyOp57
 70
     1
102
RTVSPost2010Prop28
280
     0
102
RTVSPost2010PropOp28
 70
     1
102
RTVSPost2010Prop29
280
     1
102
RTVSPost2010PropOp29
 70
     1
102
RTVSPost2010Prop30
280
     1
102
RTVSPost2010PropOp30
 70
     1
102
RTVSPost2010Prop31
280
     0
102
RTVSPost2010PropOp31
 70
     1
102
RTVSPost2010Prop32
280
     0
102
RTVSPost2010PropOp32
 70
     1
102
RTVSPost2010Prop33
280
     0
102
RTVSPost2010PropOp33
 70
     1
102
RTVSPost2010Prop34
280
     0
102
RTVSPost2010PropOp34
 70
     1
102
RTVSPost2010Prop35
280
     0
102
RTVSPost2010PropOp35
 70
     1
102
RTVSPost2010Prop36
280
     0
102
RTVSPost2010PropOp36
 70
     1
102
RTVSPost2010Prop37
 90
       50
102
RTVSPost2010PropOp37
 70
     1
102
RTVSPost2010Prop38
140
0.0
102
RTVSPost2010PropOp38
 70
     1
102
RTVSPost2010Prop39
140
1.0
102
RTVSPost2010PropOp39
 70
     1
102
RTVSPost2010Prop40
 90
        0
102
RTVSPost2010PropOp40
 70
     1
102
RTVSPost2010Prop41ColorIndex
 90
       18
102
RTVSPost2010Prop41ColorRGB
 90
        0
102
RTVSPost2010PropOp41
 70
     1
102
RTVSPost2010Prop42
 90
       50
102
RTVSPost2010PropOp42
 70
     1
102
RTVSPost2010Prop43
 90
        3
102
RTVSPost2010PropOp43
 70
     1
102
RTVSPost2010Prop44ColorIndex
 90
        5
102
RTVSPost2010Prop44ColorRGB
 90
      255
102
RTVSPost2010PropOp44
 70
     1
102
RTVSPost2010Prop45
280
     0
102
RTVSPost2010PropOp45
 70
     1
102
RTVSPost2010Prop46
 90
       50
102
RTVSPost2010PropOp46
 70
     1
102
RTVSPost2010Prop47
 90
       50
102
RTVSPost2010PropOp47
 70
     1
102
RTVSPost2010Prop48
 90
       50
102
RTVSPost2010PropOp48
 70
     1
102
RTVSPost2010Prop49
280
     0
102
RTVSPost2010PropOp49
 70
     1
102
RTVSPost2010Prop50
 90
       50
102
RTVSPost2010PropOp50
 70
     1
102
RTVSPost2010Prop51ColorIndex
 90
      256
102
RTVSPost2010Prop51ColorRGB
 90
-16777216
102
RTVSPost2010PropOp51
 70
     0
102
RTVSPost2010Prop52
140
1.0
102
RTVSPost2010PropOp52
 70
     0
102
RTVSPost2010Prop53
 90
        2
102
RTVSPost2010PropOp53
 70
     1
102
RTVSPost2010Prop54
  1
strokes_ogs.tif
102
RTVSPost2010PropOp54
 70
     1
102
RTVSPost2010Prop55
280
     0
102
RTVSPost2010PropOp55
 70
     1
102
RTVSPost2010Prop56
140
1.0
102
RTVSPost2010PropOp56
 70
     1
102
RTVSPost2010Prop57
140
1.0
102
RTVSPost2010PropOp57
 70
     1
  0
XRECORD
  5
414
102
{ACAD_REACTORS
330
413
102
}
330
413
100
AcDbXrecord
280
     1
102
RTVSPropertyOp0
 70
     1
102
RTVSPropertyOp1
 70
     1
102
RTVSPropertyOp2
 70
     1
102
RTVSPropertyOp3
 70
     1
102
RTVSPropertyOp4
 70
     1
102
RTVSPropertyOp5
 70
     1
102
RTVSPropertyOp6
 70
     1
102
RTVSPropertyOp7
 70
     1
102
RTVSPropertyOp8
 70
     1
102
RTVSPropertyOp9
 70
     1
102
RTVSPropertyOp10
 70
     1
102
RTVSPropertyOp11
 70
     1
102
RTVSPropertyOp12
 70
     1
102
RTVSPropertyOp13
 70
     1
102
RTVSPropertyOp14
 70
     1
102
RTVSPropertyOp15
 70
     1
102
RTVSPropertyOp16
 70
     1
102
RTVSPropertyOp17
 70
     1
102
RTVSPropertyOp18
 70
     1
102
RTVSPropertyOp19
 70
     1
102
RTVSPropertyOp20
 70
     1
102
RTVSPropertyOp21
 70
     1
102
RTVSPropertyOp22
 70
     1
102
RTVSPropertyOp23
 70
     1
102
RTVSPropertyOp24
 70
     1
102
RTVSPropertyOp25
 70
     1
102
RTVSPropertyOp26
 70
     1
102
RTVSPropertyOp27
 70
     1
102
RTVSPropertyOp28
 70
     1
102
RTVSPropertyOp29
 70
     1
102
RTVSPropertyOp30
 70
     1
102
RTVSPropertyOp31
 70
     1
102
RTVSPropertyOp32
 70
     1
102
RTVSPropertyOp33
 70
     1
102
RTVSPropertyOp34
 70
     1
102
RTVSPropertyOp35
 70
     1
102
RTVSPropertyOp36
 70
     1
102
RTVSPropertyOp37
 70
     1
102
RTVSPropertyOp38
 70
     1
102
RTVSPropertyOp39
 70
     1
102
RTVSPropertyOp40
 70
     1
102
RTVSPropertyOp41
 70
     1
102
RTVSPropertyOp42
 70
     1
102
RTVSPropertyOp43
 70
     1
102
RTVSPropertyOp44
 70
     1
102
RTVSPropertyOp45
 70
     1
102
RTVSPropertyOp46
 70
     1
102
RTVSPropertyOp47
 70
     1
102
RTVSPropertyOp48
 70
     1
102
RTVSPropertyOp49
 70
     1
102
RTVSPropertyOp50
 70
     1
102
RTVSPropertyOp51
 70
     0
102
RTVSPropertyOp52
 70
     0
102
RTVSPropertyOp53
 70
     1
102
RTVSPropertyOp54
 70
     1
102
RTVSPropertyOp55
 70
     1
102
RTVSPropertyOp56
 70
     1
102
RTVSPropertyOp57
 70
     1
102
RTVSPost2010Prop28
280
     0
102
RTVSPost2010PropOp28
 70
     1
102
RTVSPost2010Prop29
280
     1
102
RTVSPost2010PropOp29
 70
     1
102
RTVSPost2010Prop30
280
     1
102
RTVSPost2010PropOp30
 70
     1
102
RTVSPost2010Prop31
280
     0
102
RTVSPost2010PropOp31
 70
     1
102
RTVSPost2010Prop32
280
     0
102
RTVSPost2010PropOp32
 70
     1
102
RTVSPost2010Prop33
280
     0
102
RTVSPost2010PropOp33
 70
     1
102
RTVSPost2010Prop34
280
     0
102
RTVSPost2010PropOp34
 70
     1
102
RTVSPost2010Prop35
280
     0
102
RTVSPost2010PropOp35
 70
     1
102
RTVSPost2010Prop36
280
     0
102
RTVSPost2010PropOp36
 70
     1
102
RTVSPost2010Prop37
 90
       50
102
RTVSPost2010PropOp37
 70
     1
102
RTVSPost2010Prop38
140
0.0
102
RTVSPost2010PropOp38
 70
     1
102
RTVSPost2010Prop39
140
1.0
102
RTVSPost2010PropOp39
 70
     1
102
RTVSPost2010Prop40
 90
        0
102
RTVSPost2010PropOp40
 70
     1
102
RTVSPost2010Prop41ColorIndex
 90
       18
102
RTVSPost2010Prop41ColorRGB
 90
        0
102
RTVSPost2010PropOp41
 70
     1
102
RTVSPost2010Prop42
 90
       50
102
RTVSPost2010PropOp42
 70
     1
102
RTVSPost2010Prop43
 90
        3
102
RTVSPost2010PropOp43
 70
     1
102
RTVSPost2010Prop44ColorIndex
 90
        5
102
RTVSPost2010Prop44ColorRGB
 90
      255
102
RTVSPost2010PropOp44
 70
     1
102
RTVSPost2010Prop45
280
     0
102
RTVSPost2010PropOp45
 70
     1
102
RTVSPost2010Prop46
 90
       50
102
RTVSPost2010PropOp46
 70
     1
102
RTVSPost2010Prop47
 90
       50
102
RTVSPost2010PropOp47
 70
     1
102
RTVSPost2010Prop48
 90
       50
102
RTVSPost2010PropOp48
 70
     1
102
RTVSPost2010Prop49
280
     0
102
RTVSPost2010PropOp49
 70
     1
102
RTVSPost2010Prop50
 90
       50
102
RTVSPost2010PropOp50
 70
     1
102
RTVSPost2010Prop51ColorIndex
 90
      256
102
RTVSPost2010Prop51ColorRGB
 90
-16777216
102
RTVSPost2010PropOp51
 70
     0
102
RTVSPost2010Prop52
140
1.0
102
RTVSPost2010PropOp52
 70
     0
102
RTVSPost2010Prop53
 90
        2
102
RTVSPost2010PropOp53
 70
     1
102
RTVSPost2010Prop54
  1
strokes_ogs.tif
102
RTVSPost2010PropOp54
 70
     1
102
RTVSPost2010Prop55
280
     0
102
RTVSPost2010PropOp55
 70
     1
102
RTVSPost2010Prop56
140
1.0
102
RTVSPost2010PropOp56
 70
     1
102
RTVSPost2010Prop57
140
1.0
102
RTVSPost2010PropOp57
 70
     1
  0
XRECORD
  5
434
102
{ACAD_REACTORS
330
433
102
}
330
433
100
AcDbXrecord
280
     1
102
RTVSPropertyOp0
 70
     1
102
RTVSPropertyOp1
 70
     1
102
RTVSPropertyOp2
 70
     1
102
RTVSPropertyOp3
 70
     1
102
RTVSPropertyOp4
 70
     1
102
RTVSPropertyOp5
 70
     1
102
RTVSPropertyOp6
 70
     1
102
RTVSPropertyOp7
 70
     1
102
RTVSPropertyOp8
 70
     1
102
RTVSPropertyOp9
 70
     1
102
RTVSPropertyOp10
 70
     1
102
RTVSPropertyOp11
 70
     1
102
RTVSPropertyOp12
 70
     1
102
RTVSPropertyOp13
 70
     1
102
RTVSPropertyOp14
 70
     1
102
RTVSPropertyOp15
 70
     1
102
RTVSPropertyOp16
 70
     1
102
RTVSPropertyOp17
 70
     1
102
RTVSPropertyOp18
 70
     1
102
RTVSPropertyOp19
 70
     1
102
RTVSPropertyOp20
 70
     1
102
RTVSPropertyOp21
 70
     1
102
RTVSPropertyOp22
 70
     1
102
RTVSPropertyOp23
 70
     1
102
RTVSPropertyOp24
 70
     1
102
RTVSPropertyOp25
 70
     1
102
RTVSPropertyOp26
 70
     1
102
RTVSPropertyOp27
 70
     1
102
RTVSPropertyOp28
 70
     1
102
RTVSPropertyOp29
 70
     1
102
RTVSPropertyOp30
 70
     1
102
RTVSPropertyOp31
 70
     1
102
RTVSPropertyOp32
 70
     1
102
RTVSPropertyOp33
 70
     1
102
RTVSPropertyOp34
 70
     1
102
RTVSPropertyOp35
 70
     1
102
RTVSPropertyOp36
 70
     1
102
RTVSPropertyOp37
 70
     1
102
RTVSPropertyOp38
 70
     1
102
RTVSPropertyOp39
 70
     1
102
RTVSPropertyOp40
 70
     1
102
RTVSPropertyOp41
 70
     1
102
RTVSPropertyOp42
 70
     1
102
RTVSPropertyOp43
 70
     1
102
RTVSPropertyOp44
 70
     1
102
RTVSPropertyOp45
 70
     1
102
RTVSPropertyOp46
 70
     1
102
RTVSPropertyOp47
 70
     1
102
RTVSPropertyOp48
 70
     1
102
RTVSPropertyOp49
 70
     1
102
RTVSPropertyOp50
 70
     1
102
RTVSPropertyOp51
 70
     0
102
RTVSPropertyOp52
 70
     0
102
RTVSPropertyOp53
 70
     1
102
RTVSPropertyOp54
 70
     1
102
RTVSPropertyOp55
 70
     1
102
RTVSPropertyOp56
 70
     1
102
RTVSPropertyOp57
 70
     1
102
RTVSPost2010Prop28
280
     0
102
RTVSPost2010PropOp28
 70
     1
102
RTVSPost2010Prop29
280
     1
102
RTVSPost2010PropOp29
 70
     1
102
RTVSPost2010Prop30
280
     1
102
RTVSPost2010PropOp30
 70
     1
102
RTVSPost2010Prop31
280
     0
102
RTVSPost2010PropOp31
 70
     1
102
RTVSPost2010Prop32
280
     0
102
RTVSPost2010PropOp32
 70
     1
102
RTVSPost2010Prop33
280
     0
102
RTVSPost2010PropOp33
 70
     1
102
RTVSPost2010Prop34
280
     0
102
RTVSPost2010PropOp34
 70
     1
102
RTVSPost2010Prop35
280
     0
102
RTVSPost2010PropOp35
 70
     1
102
RTVSPost2010Prop36
280
     0
102
RTVSPost2010PropOp36
 70
     1
102
RTVSPost2010Prop37
 90
       50
102
RTVSPost2010PropOp37
 70
     1
102
RTVSPost2010Prop38
140
0.0
102
RTVSPost2010PropOp38
 70
     1
102
RTVSPost2010Prop39
140
1.0
102
RTVSPost2010PropOp39
 70
     1
102
RTVSPost2010Prop40
 90
        0
102
RTVSPost2010PropOp40
 70
     1
102
RTVSPost2010Prop41ColorIndex
 90
       18
102
RTVSPost2010Prop41ColorRGB
 90
        0
102
RTVSPost2010PropOp41
 70
     1
102
RTVSPost2010Prop42
 90
       50
102
RTVSPost2010PropOp42
 70
     1
102
RTVSPost2010Prop43
 90
        3
102
RTVSPost2010PropOp43
 70
     1
102
RTVSPost2010Prop44ColorIndex
 90
        5
102
RTVSPost2010Prop44ColorRGB
 90
      255
102
RTVSPost2010PropOp44
 70
     1
102
RTVSPost2010Prop45
280
     0
102
RTVSPost2010PropOp45
 70
     1
102
RTVSPost2010Prop46
 90
       50
102
RTVSPost2010PropOp46
 70
     1
102
RTVSPost2010Prop47
 90
       50
102
RTVSPost2010PropOp47
 70
     1
102
RTVSPost2010Prop48
 90
       50
102
RTVSPost2010PropOp48
 70
     1
102
RTVSPost2010Prop49
280
     0
102
RTVSPost2010PropOp49
 70
     1
102
RTVSPost2010Prop50
 90
       50
102
RTVSPost2010PropOp50
 70
     1
102
RTVSPost2010Prop51ColorIndex
 90
      256
102
RTVSPost2010Prop51ColorRGB
 90
-16777216
102
RTVSPost2010PropOp51
 70
     0
102
RTVSPost2010Prop52
140
1.0
102
RTVSPost2010PropOp52
 70
     0
102
RTVSPost2010Prop53
 90
        2
102
RTVSPost2010PropOp53
 70
     1
102
RTVSPost2010Prop54
  1
strokes_ogs.tif
102
RTVSPost2010PropOp54
 70
     1
102
RTVSPost2010Prop55
280
     0
102
RTVSPost2010PropOp55
 70
     1
102
RTVSPost2010Prop56
140
1.0
102
RTVSPost2010PropOp56
 70
     1
102
RTVSPost2010Prop57
140
1.0
102
RTVSPost2010PropOp57
 70
     1
  0
ENDSEC
  0
SECTION
  2
THUMBNAILIMAGE
 90
    16364
310
28000000B4000000550000000100080000000000C43B000000000000000000000001000000010000000000000000FF0000FFFF0000FF0000FFFF0000FF000000FF00FF00FFFFFF0080808000C0C0C0000000FF007F7FFF000000CC006666CC00000099004C4C990000007F003F3F7F0000004C0026264C00003FFF007F9FFF
310
000033CC00667FCC00002699004C5F9900001F7F003F4F7F0000134C00262F4C00007FFF007FBFFF000066CC006699CC00004C99004C729900003F7F003F5F7F0000264C0026394C0000BFFF007FDFFF000099CC0066B2CC00007299004C859900005F7F003F6F7F0000394C0026424C0000FFFF007FFFFF0000CCCC0066CC
310
CC00009999004C999900007F7F003F7F7F00004C4C00264C4C0000FFBF007FFFDF0000CC990066CCB200009972004C998500007F5F003F7F6F00004C3900264C420000FF7F007FFFBF0000CC660066CC990000994C004C997200007F3F003F7F5F00004C2600264C390000FF3F007FFF9F0000CC330066CC7F00009926004C
310
995F00007F1F003F7F4F00004C1300264C2F0000FF00007FFF7F0000CC000066CC6600009900004C994C00007F00003F7F3F00004C0000264C26003FFF00009FFF7F0033CC00007FCC6600269900005F994C001F7F00004F7F3F00134C00002F4C26007FFF0000BFFF7F0066CC000099CC66004C99000072994C003F7F0000
310
5F7F3F00264C0000394C2600BFFF0000DFFF7F0099CC0000B2CC66007299000085994C005F7F00006F7F3F00394C0000424C2600FFFF0000FFFF7F00CCCC0000CCCC66009999000099994C007F7F00007F7F3F004C4C00004C4C2600FFBF0000FFDF7F00CC990000CCB266009972000099854C007F5F00007F6F3F004C3900
310
004C422600FF7F0000FFBF7F00CC660000CC996600994C000099724C007F3F00007F5F3F004C2600004C392600FF3F0000FF9F7F00CC330000CC7F660099260000995F4C007F1F00007F4F3F004C1300004C2F2600FF000000FF7F7F00CC000000CC66660099000000994C4C007F0000007F3F3F004C0000004C262600FF00
310
3F00FF7F9F00CC003300CC667F0099002600994C5F007F001F007F3F4F004C0013004C262F00FF007F00FF7FBF00CC006600CC66990099004C00994C72007F003F007F3F5F004C0026004C263900FF00BF00FF7FDF00CC009900CC66B20099007200994C85007F005F007F3F6F004C0039004C264200FF00FF00FF7FFF00CC
310
00CC00CC66CC0099009900994C99007F007F007F3F7F004C004C004C264C00BF00FF00DF7FFF009900CC00B266CC0072009900854C99005F007F006F3F7F0039004C0042264C007F00FF00BF7FFF006600CC009966CC004C009900724C99003F007F005F3F7F0026004C0039264C003F00FF009F7FFF003300CC007F66CC00
310
260099005F4C99001F007F004F3F7F0013004C002F264C00333333005B5B5B0084848400ADADAD00D6D6D600FFFFFF0000000000000000000000000000000000000000000000000000000000000000000000000000000000000000000000000000000000000000000000000000000000000000000000000000000000000000
310
00000000000000000000000000000000000000000000000000000000000000000000000000000000000000000000000000000000000000000000000000000000000000000000000000000000000000000000000000000000000000000000000000000000000000000000000000000000000000000000000000000000000000
310
00000000000000000000000000000000000000000000000000000000000000000000000000000000000000000000000000000000000000000000000000000000000000000000000000000000000000000000000000000000000000000000000000000000000000000000000000000000000000000000000000000000000000
310
00000000000000000000000000000000000000000000000000000000000000000000000000000000000000000000000000000000000000000000000000000000000000000000000000000000000000000000000000000000000000000000000000000000000000000000000000000000000000000000000000000000000000
310
00000000000000000000000000000000000000000000000000000000000000000000000000000000000000000000000000000000000000000000000000000000000000000000000000000000000000000000000000000000000000000000000000000000000000000000000000000000000000000000000000000000000000
310
00000000000000000000000000000000000000000000000000000000000000000000000000000000000000000000000000000000000000000000000000000000000000000000000000000000000000000000000000000000000000000000000000000000000000000000000000000000000000000000000000000000000000
310
00000000000000000000000000000000000000000000000000000000000000000000000000000000000000000000000000000000000000000000000000000000000000000000000000000000000000000000000000000000000000000000000000000000000000000000000000000000000000000000000000000000000000
310
00000000000000000000000000000000000000000000000000000000000000000000000000000000000000000000000000000000000000000000000000000000000000000000000000000000000000000000000000000000000000000000000000000000000000000000000000000000000000000000000000000000000000
310
00000000000000000000000000000000000000000000000000000000000000000000000000000000000000000000000000000000000000000000000000000000000000000000000000000000000000000000000000000000000000000000000000000000000000000000000000000000000000000000000000000000000000
310
00000000000000000000000000000000000000000000000000000000000000000000000000000000000000000000000000000000000000000000000000000000000000000000000000000000000000000000000000000000000000000000000000000000000000000000000000000000000000000000000000000000000000
310
00000000000000000000000000000000000000000000000000000000000000000000000000000000000000000000000000000000000000000000000000000000000000000000000000000000000007070707070707070707070707070707070707070707070707070707070707070707070707070707070707070707070707
310
07070707070707070707070707070707070707070707070707070707070707070707070707070707070707070707070707070707000000000000000000000000000000000000000000000000000000000000000000000000000000000000000000000000000000000000000000000000000000000000000000000000000000
310
00000000070000000000000000000000000000000000000000000000000000000000000000000000000000000000000007000000000000000700000000000000000000000000000000070000000000000700000000000000070000000000000000000000000000000700000000000000000000000000000000000000000000
310
00000000000000000000000000000000000000000000000000000000000000000000000000000000000000000000000000000000000000000007000000000000000000000000000000000000000000000000000000000000000000000000000000000000000700000000000000070007070707070707070707070707070007
310
00000000000007000000000000000700000000000000000000000000000007000000000000000000000000000000000000000000000000000000000000000000000000000000000000000000000000000000000000000000000000000000000000000000000000000000000000000700000000000000000000000000000000
310
00000000000000000000000000000000000000000000000000000007000000000000000700000000000000000000000000000000070000000000000700000000000000070000000000000000000000000000000700000000000000000000000000000000000000000000000000000000000000000000000000000000000000
310
00000000000000000000000000000000000000000000000000000000000000000000000007070707070707070707070707070707070707070707070707070707070707070707070707070707070707070707070707070707070707070707070707070707070707070707070707070707070707070707070707070707070707
310
07070707070707070707000000000000000000000000000000000000000000000000000000000000000000000000000000000000000000000000000000000000000000000000000000000000000000000000000000000000000000000000000000000000000000000000000000000000000000000000000000000000000000
310
00000000000000000000000000000000000000000000000000000000000000000000000000000000000000000000000000000000000000000000000000000000000000000000000000000000000000000000000000000000000000000000000000000000000000000000000000000000000000000000000000000000000000
310
00000000000000000000000000000000000000000000000000000000000000000000000000000000000000000000000000000000000000000000000000000000000000000000000000000000000000000000000000000000000000000000000000000000000000000000000000000000000000000000000000000000000000
310
00000000000000000000000000000000000000000000000000000000000000000000000000000000000000000000000000000000000000000000000000000000000000000000000000000000000000000000000000000000000000000000000000000000000000000000000000000000000000000000000000000000000000
310
00000000000000000000000000000000000000000000000000000000000000000000000000000000000000000000000000000000000000000000000000000000000000000000000000000000000000000000000000000000000000000000000000000000000000000000000000000000000000000000000000000000000000
310
00000000070000000000000000000000000000000700000000000000000000000000000000000000000700000000000000070000000000000000000000000000000000000000000000000000000000000000000000000000000000000000000000000000000000000000000000000000000000000000000000000000000000
310
00000000000000000000000000000000000000000000000000000000000000000000000000000000000000000000000000000000000000000007070707070707070707070707070707070707070707070707070707070707070707070707070707070707070707000000000000000000000000000000000000000000000000
310
00070000000000000000000000000000000000000000000000000000000000000000000000000000000000000000000000000000000000000000000000000000000000000000000000000000000000000000000000000000000000000000000000000000000000000000000000000700000000000000000000000000000007
310
00000000000000000000000000000000000000000700000000000000070000000000000000000000000000000000000000000000000007000000000000000707000000000000000000000000000000000000000000000000000000000000000000000000000000000000000000000000000000000000000000000000000000
310
00000000000000000000000000000000000000000000000000000000000000000000000007070707070707070707070707070707070000000000000000000000000000000000000000070000000000000007000000000000000000000000000000000000000000000000000707070707070707070707070700000000000000
310
00000000000000000000000000000000000000000000000000000000000000000000000000000000000000000000000000000000000000000000000000000000000000000000000000000000000000000000000000000000000700070707070707070707070707070007000000000000000000000000000000000000000007
310
00000000000000070000000000000000000000000000000000000000000000000007000000000000070707000007000000000000000000000000000000000000000000000000000000000000000000000000000000000000000000000000000000000000000000000000000000000000000000000000000000000000000000
310
00000000000000000000000000070007000700000000000707000000000700070000000000000000000000000000000000000000070000000000000007000000000000000000000000000000000000000000000000000700000000000707070700000700000000000000000000000000000000000000000000000000000000
310
00000000000000000000000000000000000000000000000000000000000000000000000000000000000000000000000000000000000000000000000000000000070707070707070707070707070707070707070007000000000000000000000000000000000000000007000000000000000700000000000000000007070707
310
07070707070707070707070707070707000707000707000707000000000000000000000000000000000000000000000000000000000000000000000000000000000000000000000000000000000000000000000000000000000000000000000000000000000000000000000000000000000000000007000707070707070707
310
07070707070707070707070000000000000000000000000000000000000000070000000000000007000000000000000000070007000007070700000000000000000707070707070000070700070700000000000000000000000000000000000000000000000000000000000000000000000000000000000000000000000000
310
00000000000000000000000000000000000000000000000000000000000000000000000000000000000000070007070707070707070707070707070707070707000000000000000000000000000000000000000007000000000000000700000000000000000007000700000707070707070707070707070707070700000007
310
07000707000000000000000000000000000000000000000000000000000000000000000000000000000000000000000000000000000000000000000000000000000000000000000000000000000000000000000000000000000000000000000007000007070007070707070007070007070007070700000000000000000000
310
00000000000000000000070000000000000007000000000000000000070007000007070007000000000000070700070700000000070700000700000000000000000000000000000000000000000000000000000000000000000000000000000000000000000000000000000000000000000000000000000000000000000000
310
00000000000000000000000000000000000000000000070000070700070707070700070700070700070707000000000000000000000000000000000000000007000000000000000700000000000000000007000700000707000007000000000007070707000000000007070000070000000000000000000000000000000000
310
00000000000000000000000000000000000000000000000000000000000000000000000000000000000000000000000000000000000000000000000000000000000000000000000000000007000007070707070707070707070707070707070700000000000000000000000000000000000000000700000000000000070000
310
00000000000000070007000007070000000700000000070707070707070707070707070700000000000000000000000000000000000000000000000000000000000000000000000000000000000000000000000000000000000000000000000000000000000000000000000000000000000000000000000000000000000000
310
00070000070000070707070700070700070700070700000000000000000000000000000000000000000007000000000000000700000000000000000007000700000707000000070000000007070000000000000000000000070000000000000000000000000000000000000000000000000000000000000000000000000000
310
00000000000000000000000000000000000000000000000000000000000000000000000000000000000000000000000000000000000007000007000007070707070007070007070007070700000000000000000000000000000000000000000700000000000000070000000000000000000700070000070700000007000000
310
00070700000000000000000000000700000000000000000000000000000000000000000000000000000000000000000000000000000000000000000000000000000000000000000000000000000000000000000000000000000000000000000000000000000000000000000700000700000707070707000707000707000707
310
00070000000000000000000000000000000000000007000000000000000700000000000000000007000700000707000000070707000007070000000000000000000000070000000000000000000000000000000000000000000000000000000000000000000000000000000000000000000000000000000000000000000000
310
00000000000000000000000000000000000000000000000000000000000000000007000007000007070707070007070007070007070000070000000000000000000000000000000000000700000000000000070000000000000000000700070000070700000007070700000707000000000000000000000007000000000000
310
00000000000000000000000000000000000000000000000000000000000000000000000000000000000000000000000000000000000000000000000000000000000000000000000000000000000000000000000000000700000700000707070707000707000707000707000007000000000000000000000000000000000000
310
07000000000000000700000000000000000007000700000707000000070707000007070000000000000000000000070000000000000000000000000000000000000000000000000000000000000000000000000000000000000000000000000000000000000000000000000000000000000000000000000000000000000000
310
00000000000000000000000007000007000007070707070007070007070007070000070000000000000000000000000000000000000700000000000000070000000000000000000700070000070700000007070700000707000000000000000000000007000000000000000000000000000000000000000000000000000000
310
00000000000000000000000000000000000000000000000000000000000000000000000000000000000000000000000000000000000000000000000000000000000700000700000707070707000707000707000707000007000000000000000000000000000000000000070000000000000007000000000000000000070007
310
00000707000000070707000000070000000000000000000000070000000000000000000000000000000000000000000000000000000000000000000000000000000000000000000000000000000000000000000000000000000000000000000000000000000000000000000000000000000000000000070000070000070707
310
07070007070007070007070000070000000000000000000000000000000000000700000000000000070000000000000000000707070000070700000007070700000007000000000000000000000007000000000000000000000000000000000000000000000000000000000000000000000000000000000000000000000000
310
00000000000000000000000000000000000000000000000000000000000000000000000000000000000000000700000700000707070707000707000707000707000007000000000000000000000000000000000000070000000000000007000000000000000000070707000007070000000007070000000700000000000000
310
00000000070000000000000000000000000000000000000000000000000000000000000000000000000000000000000000000000000000000000000000000000000000000000000000000000000000000000000000000000000000000000000000070000070000070707070700070700070700070700000700000000000000
310
00000000000000000000000700000000000000070000000000000000000707070000070700000000070700000007000000000000000000000707000000000000000000000000000000000000000000000000000000000000000000000000000000000000000000000000000000000000000000000000000000000000000000
310
00000000000000000000000000000000000000000000000700000700000707070707000707000707000707000007000000000000000000000000000000000000070000000000000007000000000000000000070007000007070000000000000000000700000000000000000000070700000000000000000000000000000000
310
00000000000000000000000000000000000000000000000000000000000000000000000000000000000000000000000000000000000000000000000000000000000000000000000000000000070000070000070707070700070700070700070700000700000000000000000000000000000000000007000000000000000700
310
00000000000000000700070000070700000000000000000007000000000000000000000707000000000000000000000000000000000000000000000000000000000000000000000000000000000000000000000000000000000000000000000000000000000000000000000000000000000000000000000000000000000000
310
00000700000700000707070707000707000707000707000007000000000000000000000000000000000000070000000000000007000000000000000000070007000007070000000000000000000700000000000000000000000700000000000000000000000000000000000000000000000000000000000000000000000000
310
00000000000000000000000000000000000000000000000000000000000000000000000000000000000000000000000000000000000007070000070000070707070700070700070700070700000700000000070700000000000000000000000007000000000000000700000000000000000007000700000707000000000000
310
00000007000000000000000000000007000000000000000000000000000000000000000000000000000000000000000000000000000000000000000000000000000000000000000000000000000000000000000000000000000000000000000000000000000000000000000707000707000007070707070707070707070707
310
07000007000000000707070000000000000000000000070000000000000007000000000000000007070007000007070000000000000000000700000000000000000000000700000000000000000000000000000000000000000000000000000000000000000000000000000000000000000000000000000000000000000000
310
00000000000000000000000000000000000000000000000000000000000000000007070007070000070707070707070707070707070700000700000000070707000000000000000000000007000000000000000700000000000000000707000700000707000000000000000000070000000000000000000000070000000000
310
00000000000000000000000000000000000000000000000000000000000000000000000000000000000000000000000000000000000000000000000000000000000000000000000000000000000000000000000000000007000707000007070707070007070007070007070000070000000007070700000000000000000000
310
00070000000000000007000000000000000007070007000007070000000000000000000700000000000000000000000700000000000000000000000000000000000000000000000000000000000000000000000000000000000000000000000000000000000000000000000000000000000000000000000000000000000000
310
00000000000000000000000000070000070000070707070700070700070700070700000700000000070707000000000000000000000007000000000000000700000000000000000007000700000707000000000000000000070000000000000000000000070000000000000000000000000000000000000000000000000000
310
00000000000000000000000000000000000000000000000000000000000000000000000000000000000000000000000000000000000000000000000000000000000007000007000007070707070007070007070007070000070000000007070700000000000000000000000700000000000000070000000000000000000700
310
07000007070000000000000000000700000000000000000000000700000000000000000000000000000000000000000000000000000000000000000000000000000000000000000000000000000000000000000000000000000000000000000000000000000000000000000000000000000000000000000700000700000707
310
07070700070700070700070700000700000000070707000000000000000000000007000000000000000700000000000000000007000700000707000000000000000000070000000000000000000000070000000000000000000000000000000000000000000000000000000000000000000000000000000000000000000000
310
00000000000000000000000000000000000000000000000000000000000000000000000000000000000000000007000007000007070707070007070007070007070000000000000007070700000000000000000000000700000000000000070000000000000000000700070000070700000000000000000007000000000000
310
00070700000700000000000000000000000000000000000000000000000000000000000000000000000000000000000000000000000000000000000000000000000000000000000000000000000000000000000000000000000000000000000000000700000700000707070707000707000707070707000000000000000007
310
07000000000000000000000007070707070707070700000000000000000007000700000707000000000000000000070707070707070707070707070000000000000000000000000000000000000000000000000000000000000000000000000000000000000000000000000000000000000000000000000000000000000000
310
00000000000000000000000000000000000000000000000007000007000007070707070007070007070707070000000000000007000000000000000000000000000700000707070700070000000000000000000700070707070707070707070707070707000000000000000707000007000000000000000000000000000000
310
00000000000000000000000000000000000000000000000000000000000000000000000000000000000000000000000000000000000000000000000000000000000000000000000000000000000700000700000707070707000707000707070707070707070707070707070707070707070707070707070707070707070707
310
00000000000000000007000700070707000000000000000707070700000000000007070000070000000000000000000000000000000000000000000000000000000000000000000000000000000000000000000000000000000000000000000000000000000000000000000000000000000000000000000000000000000000
310
00000007000007000007070707070007070707070707070707070707070707070707070707070707070707070707070707000707070000000000000000000700070007070707070707070707070707000000000000000707000007000000000000000000000000000000000000000000000000000000000000000000000000
310
00000000000000000000000000000000000000000000000000000000000000000000000000000000000000000000000000000000000000000700000700000707070707000707070707070707070707070707070707070707070707070707070707070707070700070707000000000000000000070007000707070000000000
310
00000007070000000000000707070000070000000000000000000000000000000000000000000000000000000000000000000000000000000000000000000000000000000000000000000000000000000000000000000000000000000000000000000000000000000000000000070000070000070707070700070707070707
310
07070707070707070707070707070707070707070707070707070707000707070000000000000000000700070007070707070707070707070707000000000007070707000007000000000000000000000000000000000000000000000000000000000000000000000000000000000000000000000000000000000000000000
310
00000000000000000000000000000000000000000000000000000000000000000000000700000700000707070707070707070707070707070707070707070707070707070707070707070707070707070700070707000000000000000000070007000707070000000000000000070700000000070700070700000700000000
310
00000000000000000000000000000000000000000000000000000000000000000000000000000000000000000000000000000000000000000000000000000000000000000000000000000000000000000000000000000000070000070000070707070700070707070707070707070707070707070707070707070707070707
310
07070707070707000707070000000000000000000707070707070700000000000000070707000000070700000707000707000000000000000000000000000000000000000000000000000000000000000000000000000000000000000000000000000000000000000000000000000000000000000000000000000000000000
310
00000000000000000000000000000700000700000707070707070707000000000000000000000007070000000000000000000007000000070000070700070707000000000000000000070707070707070000000000000007070700000700000000070700070700000000000000000000000000000000000000000000000000
310
00000000000000000000000000000000000000000000000000000000000000000000000000000000000000000000000000000000000000000000000000000000000000070000070000070707070707070707070707070707070707070707070707070707070707070707070707070707070007070700000000000000000007
310
00070007070700000000000000000707000700000000000707000007000000000000000000000000000000000000000000000000000000000000000000000000000000000000000000000000000000000000000000000000000000000000000000000000000000000000000000000000000000000000000007000007000007
310
07070707070707070707070707070707070707070707070707070707070707070707070707070700070707000000000000000700070007000707070707070707070707070707000000000000070700000700000000000000000000000000000000000000000000000000000000000000000000000000000000000000000000
310
00000000000000000000000000000000000000000000000000000000000000000000000000000000000000000000070000070000070707070700000000000000000000000000000707000000000000000000000700000007000007070007070700000000000000000007000700070707070707070707070707070000000000
310
00000707000007000000000000000000000000000000000000000000000000000000000000000000000000000000000000000000000000000000000000000000000000000000000000000000000000000000000000000000000000000000000000000007000007000007070707070707070707070707070707070707070707
310
07070707070707070707070707070707070707070707000000000000000000070007000707070000000000000007070707000000000000070700000700000000000000000000000000000000000000000000000000000000000000000000000000000000000000000000000000000000000000000000000000000000000000
310
00000000000000000000000000000000000000000000000000070707070707070707070707070707070707070707070707070707070707070707070707070707070707070707070707070700000000000000000007000700070707070000000000000007070700000000000007070000070000000000000000000000000000
310
00000000000000000000000000000000000000000000000000000000000000000000000000000000000000000000000000000000000000000000000000000000000000000000000000000000000000000700000007000000070000000000000000000000000000000000000000000000000000000000000700000707070707
310
07000000000000000000070707070707070707070707070707070700000000000000070700000700000000000000000000000000000000000000000000000000000000000000000000000000000000000000000000000000000000000000000000000000000000000000000000000000000000000000000000000000000000
310
00000000000000000000070000000007000000000000000000000000000000000000000000000000000000000007070707070707070700000000000000000000000000000707000000000000000000070707070707070707070707070000000000000000000000000000000000000000000000000000000000000000000000
310
00000000000000000000000000000000000000000000000000000000000000000000000000000000000000000000000000000000000000000000000000000007000000000700000000000000000000000000000000000000000000000000000000000000000007070707000000000000000000000000000000070700000000
310
00000000000700000000000000070700000000000000000000000000000000000000000000000000000000000000000000000000000000000000000000000000000000000000000000000000000000000000000000000000000000000000000000000000000000000000000000000000000000000707070707070707070707
310
07070707070707070707070707070707070707070707070707070707070707070000000000000000000000000000000707070707070707070707070000000000000007070000000000000000000000000000000000000000000000000000000000000000000000000000000000000000000000000000000000000000000000
310
00000000000000000000000000000000000000000000000000000000000000000000000000000000000007000000000700000000000000000000000000000000000000000000000000000000000000000000070707000000000000000000000000000000070707070707070707070707070707070707070707000000000000
310
00000000000000000000000000000000000000000000000000000000000000000000000000000000000000000000000000000000000000000000000000000000000000000000000000000000000000000000000000000000000000000000000707070707070707070707070707070707070707070707070707070707070707
310
07070707070707070707070000000000000000000000000000000700000000070707000000070000000707000007070000000000000000000000000000000000000000000000000000000000000000000000000000000000000000000000000000000000000000000000000000000000000000000000000000000000000000
310
00000000000000000000000000000000000000000000000000000707000000000000000000000000000707070000000000000000000000000000000000000007070000000000000000000000000000000000000000000000000007000000000000000000000000000000000000000000000000000000000000000000000000
310
00000000000000000000000000000000000000000000000000000000000000000000000000000000000000000000000000000000000000000000000000000000000000000000000000000000000007070700000000000000000000000000000000000000000000000000000000000000000000070707000000000000000000
310
00000000000000000000000000000000070000000000000000000000000000000000000000000000000000000000000000000000000000000000000000000000000000000000000000000000000000000000000000000000000000000000000000000000000000000000000000000000000000000000000000000000000000
310
00000000070707000000000000000000000000000000000000000000000000000000000000000000000707070000000000000000000000000000000000000000000000000000000000000000000000000000000000000000000000000000000000000000000000000000000000000000000000000000000000000000000000
310
00000000000000000000000000000000000000000000000000000000000000000000000000000000000000000000000000000000000000000007070700000000000000000000000000000000000000000000000000000000000000000000070707000000000000000000000000000000000000000000000000000000000000
310
00000000000000000000000000000000000000000000000000000000000000000000000000000000000000000000000000000000000000000000000000000000000000000000000000000000000000000000000000000000000000000000000000000000000000000000000000000707070000000000000000000000000000
310
00000000000000000000000000000000000000000707070000000000000000000000000000000000000000000000000000000000000000000000000000000000000000000000000000000000000000000000000000000000000000000000000000000000000000000000000000000000000000000000000000000000000000
310
00000000000000000000000000000000000000000000000000000000000000000000000007070700000000000000000000000000000000000000000000000000000000000000000000070707000000000000000000000000000000000000000000000000000000000000000000000000000000000000000000000000000000
310
00000000000000000000000000000000000000000000000000000000000000000000000000000000000000000000000000000000000000000000000000000000000000000000000000000000000000000000000000000000000707070000000000000000000000000000000000000000000000000000000000000000000007
310
07070000000000000000000000000000000000000000000000000000000000000000000000000000000000000000000000000000000000000000000000000000000000000000000000000000000000000000000000000000000000000000000000000000000000000000000000000000000000000000000000000000000000
310
00000000000000000000000000000007070700000000000000000000000000000000000000000000000000000000000000000000070707000000000000000000000000000000000000000000000000000000000000000000000000000000000000000000000000000000000000000000000000000000000000000000000000
310
00000000000000000000000000000000000000000000000000000000000000000000000000000000000000000000000000000000000000000000000000000000000000000007070000000000000000000000000000000000000000000000000000000000000000000000070700000000000000000000000000000000000000
310
00000000000000000000000000000000000000000000000000000000000000000000000000000000000000000000000000000000000000000000000000000000000000000000000000000000000000000000000000000000000000000000000000000000000000000000000000000000000000000000000000000000000000
310
00000000000000000000000000000000000000000000000000000000000000000000000000000000000000000000000000000000000000000000000000000000000000000000000000000000000000000000000000000000000000000000000000000000000000000000000000000000000000000000000000000000000000
310
00000000000000000000000000000000000000000000000000000000000000000000000000000000000000000000000000000000000000000000000000000000000000000000000000000000000000000000000000000000000000000000000000000000000000000000000000000000000000000000000000000000000000
310
00000000000000000000000000000000000000000000000000000000000000000000000000000000000000000000000000000000000000000000000000000000000000000000000000000000000000000000000000000000000000000000000000000000000000000000000000000000000000000000000000000000000000
310
00000000000000000000000000000000000000000000000000000000000000000000000000000000000000000000000000000000000000000000000000000000000000000000000000000000000000000000000000000000000000000000000000000000000000000000000000000000000000000000000000000000000000
310
00000000000000000000000000000000000000000000000000000000000000000000000000000000000000000000000000000000000000000000000000000000000000000000000000000000000000000000000000000000000000000000000000000000000000000000000000000000000000000000000000000000000000
310
00000000000000000000000000000000000000000000000000000000000000000000000000000000000000000000000000000000000000000000000000000000000000000000000000000000000000000000000000000000000000000000000000000000000000000000000000000000000000000000000000000000000000
310
00000000000000000000000000000000000000000000000000000000000000000000000000000000000000000000000000000000000000000000000000000000000000000000000000000000000000000000000000000000000000000000000000000000000000000000000000000000000000000000000000000000000000
310
00000000000000000000000000000000000000000000000000000000000000000000000000000000000000000000000000000000000000000000000000000000000000000000000000000000000000000000000000000000000000000000000000000000000000000000000000000000000000000000000000000000000000
310
00000000000000000000000000000000000000000000000000000000000000000000000000000000000000000000000000000000000000000000000000000000000000000000000000000000000000000000000000000000000000000000000000000000000000000000000000000000000000000000000000000000000000
310
00000000000000000000000000000000000000000000000000000000000000000000000000000000000000000000000000000000000000000000000000000000000000000000000000000000000000000000000000000000000000000000000000000000000000000000000000000000000000000000000000000000000000
310
000000000000000000000000000000000000000000000000000000000000000000000000000000000000000000000000000000000000000000000000000000000000000000000000000000000000000000000000000000000000000000000000000000000000000000000000
  0
ENDSEC
  0
EOF
